Cifras e Tablaturas
I Mother Earth

I Mother Earth

Like The Sun (ver. 3)

Cifras Cancelar Versão de Impressão Print

I Mother Earth - Like The Sun (ver. 3)

Tom: B

  			Tabbed By : Ty Montroy 

Hey, im fairly new at this so bare with me 
contact me for any corrections ( [email protected] )


The song is in Drop-D tunning

INTRO

E|----------------------------------------------------------------------------------
B|----------------------------------------------------------------------------------
G|----------------------------------------------------------------------------------
D|----------9----11---11/12-------9------11------11/12-------------9-------1112----
A|-------9---9----------------9-----9--------9---------------10------10------------
E|----------------------------------------------------------------------------------

VERSE   (Clean  -  listen for rythm)

    B           F#/Gb    G                B         F#/Gb      G           A

E|-----------------------------------------------------------------------------
B|-----------------------------------------------------------------------------
G|--4-4-4-4-4-----------------------------4-4-4-4-4----------------------------
D|--4-4-4-4-4---4-4-4-4/5-5-5-5-5-5-5-5---4-4-4-4-4--4-4-4-4/5-5-5-5-5-5/7-7-7-  2 x
A|--2-2-2-2-2---4-4-4-4/5-5-5-5-5-5-5-5---2-2-2-2-2--4-4-4-4/5-5-5-5-5-5/7-7-7-
E|--------------4-4-4-4/5-5-5-5-5-5-5-5--------------4-4-4-4/5-5-5-5-5-5/7-7-7-


CHORUS  (Distorstion  -  listen for rythm)

  B              D            A            G

E|---------------------------------------------------------
B|--------------3-3-3-3-3----2-2-2-2-2---------------------
G|-4-4-4-4-4----2-2-2-2-2----2-2-2-2-2---------------------
D|-4-4-4-4-4-----------------2-2-2-2-2----5-5-5-5-5--------     2 x
A|-2-2-2-2-2------------------------------5-5-5-5-5--------
E|----------------------------------------5-5-5-5-5--------


FILL 1  -  listen for rythm
( don't know if this is the real fill, but it works good )

E|-------------------------------------------------------------------------
B|-------------------------------------------------------------------------
G|--9h11--9-------------9h11--9-------------9h11--9------------------------
D|-----------12--9----------------12-----------------12---9--11-11/12------
A|------------------------------------9----------------10------------------
E|-------------------------------------------------------------------------


FILL 2 
played right after 2nd chorus before solo 

E|-------------------------------------
B|-------------------------------------
G|-------------------------------------
D|-------------------------------------     2 x 
A|------3--2--0--3--2--0--0--0--0------    Palm mute everything
E|------3--2--0--3--2--0--0--0--0------



BRIDGE 

For the bridge, just fool around with  B  F#/Gb  G  and throw an A in there now and then

Solo 

i've seen a few, and i feel that mine is closer




E---------------------------------------------------------------------------------|
B-----15-15-----15-15-----15-15---14-14--14-14----14^p12--------------------------|
G-14---------14---------14------12-----12------12--------14^-------14^--12--------|
D---------------------------------------------------------------------------------|
A---------------------------------------------------------------------------------|
E---------------------------------------------------------------------------------|

E---------------------------------------------------------------------------------|
B--------------------------------------------------------------------14^-14^------|
G----------------------14^--------------------------------------------------------|
D--14--12--11--12--11-------------14^--12----------14^--12------------------------|
A-----------------------------------------12--14------------12--14----------------|
E---------------------------------------------------------------------------------|

    	
fixar
fixar inscrever-se

enviado porenviado por: anônimo
cifra enviadaCorrigida por: sem correções
logo top cifrasComente
ico música do artistaMúsicas deste artista
ico curtiuCurtiu?
ico destaqueDestaque
Petaxxon Comunicação Online

Cifras.com.br - Melhor e mais completo site de cifras e tablaturas do Brasil Mais de 1 milhão de acordes de músicas cadastradas desde 2003
As informações contidas no nosso site são colaborações de seus usuários e podem conter erros, sendo assim, não nos responsabilizamos sobre nenhuma destas.

close
menos
mais
close
Cor dos acordes:

Cor da letra:

close
Alinhar acordes a direita Alinhar acordes a esquerda Alinhar acordes em baixo Alinhar acordes no topo
close
  Mostrar todos os acordes Esconder acordes muito fáceis Esconder acordes fáceis Esconder acordes intermediários
redimensionar
glossário