Cifras e Tablaturas
I Mother Earth

I Mother Earth

One More Astronaut

Cifras Cancelar Versão de Impressão Print

I Mother Earth - One More Astronaut

Tom:

  			tabbed by Craig Knowles 

	I really hope I didn't make this too complicated.  It is an 
easy song, but I think I might have tabbed it to death.  All the parts
should be here.  Just look at the times above the staff to figure out
which part is which if you have trouble following.  Enjoy.
--------------------------------------------------------------------
Notation:
x - muted note			h - hammer-on	(0) - ghost note
/ - slide up 			p - pull-off     b  - bend up
13b(14) - bend from 13 to 14    ~ - vibrato
--------------------------------------------------------------------
The number in brackets is the time at which to tab occurs (on CD).
-------------------------------------------------------------------- 

  For the intro, make some cool 'space-like' sounds with alot of muting
and stuff.  Do some muted arpeggios:

Part I:
~~~~~~
e-----------x-------------------x--|
b---------x---x---------------x----|
G-------x-------x-----------x------|    etc...
D-----x-----------x-------x--------|
A---x---------------x---x----------|
E-x-------------------x------------|

Part II: Opening guitar part:
~~~~~~~  ~~~~~~~~~~~~~~~~~~~
 (0:11)
e-------------|----------------------------------------------------|
b-------------|----------------------------------------------------|
G-------------|----------------------------------------------------|
D-14----------|----------------------------------------------------|
A-14----------|-/14-14-14-13h14p13-12-11-----14-14-14--13b(14)-14--|
E--0-let ring-|---0--0--0--0--------0--0--0---0--0--0---0-------0--|
	      |<-------repeat this part twice--------------------->| 			

Part III: Song kicks in:
~~~~~~~~  ~~~~~~~~~~~~~
  (0:23) (0:28)            (0:32)     
e--------------------------------------------|
b--------------------------------------------|
G-------------b4~~~~~~-----------------------|
D-14------14---------------------------------|
A-14------14--------------------12--12-14-14-|
E--0-------0----------------0-14--------0--0-|
   let ring


Part IV: Verses:
~~~~~~~  ~~~~~~
  (0:34)						  (0:42)	
e------------------|----------------------------------|--------------|
b------------------|----------------------------------|--------------|
G------------------|----------------------------------|--------------|
D------------------|----------------------------------|-2-2-2--xx-xx| 
A14-14-12-14-12-14-|-14-17-16-17-17p12-14--12-12-12h14|-2-2-2--xx-xx|
E-0--0--0--0--0--0-|--0--0--0--0--0--0--0---0--0--0---|--0-0-0--xx-xx|
		   |<----repeat 4x------------------->|  then 	

Play IV 2 times, then
first part w/ending 1
first part w/ending 2
Play IV 2 times, then
first part w/ending 1
first part w/ending 2
first part w/ending 1
first part w/ending 3 

 (0:54)       (0:55)    (0:57)         (1:18)
 first part   ending 1  ending 2       ending 3
e------------|---------|-------------|-------------------|
b------------|---------|-------------|-------------------|
G------------|---------|-------------|-------------------|       
D------------|---17b---|17b----------|-------------------| 
A-------17---|-x----19-|----19-17-19-|-14-14-14-12-11h12-|
E-17-19----19|---------|-------------|-------------------|


Part V: Chorus:
~~~~~~  ~~~~~~
  (1:19)
e--------------------------------------------------------------------|
b--------------------------------------------------------------------|
G--------------------------------------------------------------------|
D-14-14--x-x-x-x-14-x-x-x-14-14-1412-12-x-x-x-12-x-x-x-12-12-------|
A-14-14--x-x-x-x-14-x-x-x-14-14-1412-12-x-x-x-12-x-x-x-12-12-------|
E--0--0--x-x-x-x--0-x-x-x--0--0--0h10-10-x-x-x-10-x-x-x-10-10-------|
	
					 (1:39)                   (1:49) 	
e------------------------------------------|-----------------------|------|
b------------------------------------------|-----------------------|------|
G------------------------------------------|-----------------------|------|
D-5-5-5-5-5-5-5-5-5-5-5-5-x-x----2--repeat-|-2-2-x-x-x-2-repeat 4x-|------|
A-5-5-5-5-5-5-5-5-5-5-5-5-x-x----2---------|-2-2-x-x-x-2-----------|------|
E-3-3-3-3-3-3p0-2-2-2-2-2-x-x-3b-0---------|-0-0-x-x-x-0-----------|-12~~-|

Part VI: Interlude
~~~~~~~  ~~~~~~~~~
 (3:03)                        |........w/ Wah-wah...........|
e-----0------------------------------------------------------|
b-----0---------------------------12----------------12-------|
G------------------------------12-12--------x--x-12-12-------|
D-------------------14-12-14---------x--x-12-14-------------|
A---------------/14------------------12-14-------------14-12-|
E-12~~--/15--12----------------------------------------------|
				* solo mostly pick scrapes (x's)		
 (3:09)				with Wah-Wah pedal   	
e--------------------|
b--------------------|
G--------------------|  bongo solo with some guitar effects
D--------------------|
A---/7---------------|
E-0----7-5-7-5-0-0---|

 (4:11)			              (4:20)	
e------------------------------------|---------------------------|
b------------------------------------|-repeat 4x with-ending-----|
G------------------------------------|---------------------------|
D-xx-xxx-----------------------------|--------14-12--------14-12-|
A-xx-xxx------x-x-x----x-x-x---------|--12/14--------12/14-------|
E-xx-xxx-0-12-x-x-x-12-x-x-x-0h12-12-|---------------------------|
				      (4:27)	
               	repeat again 4x then D-----------------------------------|
		as the ending	     A-7-7h9-10p9p7----------------------|
				     E-------------8/9-9-9-9-9-98-8-8-8-|

Song Order:
~~~~~~~~~~
Part I
Part II
Part III
Part IV x2
Part V
Part IV x2
Part V
Part VI
Part V
Outro - same chords as chorus; just not as heavy - 2x
Part II
    	
fixar
fixar inscrever-se

enviado porenviado por: anônimo
cifra enviadaCorrigida por: sem correções
logo top cifrasComente
ico música do artistaMúsicas deste artista
ico curtiuCurtiu?
ico destaqueDestaque
Petaxxon Comunicação Online

Cifras.com.br - Melhor e mais completo site de cifras e tablaturas do Brasil Mais de 1 milhão de acordes de músicas cadastradas desde 2003
As informações contidas no nosso site são colaborações de seus usuários e podem conter erros, sendo assim, não nos responsabilizamos sobre nenhuma destas.

close
menos
mais
close
Cor dos acordes:

Cor da letra:

close
Alinhar acordes a direita Alinhar acordes a esquerda Alinhar acordes em baixo Alinhar acordes no topo
close
  Mostrar todos os acordes Esconder acordes muito fáceis Esconder acordes fáceis Esconder acordes intermediários
redimensionar
glossário