Cifras e Tablaturas
I Pixel

I Pixel

Fine Della Fiera

Cifras Cancelar Versão de Impressão
cifras

I Pixel - Fine Della Fiera

fixar na tela  
Exibindo: vídeo-aula ver clipes redimensionar

Tom:

  

E |----------------------------|----------------------------| 
B |----------------------------|----------------------------| 
G |----------------------------|----------------------------| 
D |--1--1--1--1--1--1--1--1----|--3--3--3--3--3--3--3--1----| 
A |--3--3--3--3--3--3--3--3----|--3--3--3--3--3--3--3--3----| 
E |----------------------------|----------------------------| 


----------------------------|----------------------------| 
----------------------------|----------------------------| 
----------------------------|----------------------------| 
--0--0--0--0--0--0--0--0----|--1--1--1--0--0--0--0--0----| 
--1--1--1--1--1--1--1--1----|--1--1--1--1--1--1--1--1----| 
----------------------------|----------------------------| 


----------------------------|----------------------------| 
----------------------------|----------------------------| 
----------------------------|----------------------------| 
--1--1--1--1--1--1--1--1----|--3--3--3--3--3--3--3--1----| 
--3--3--3--3--3--3--3--3----|--3--3--3--3--3--3--3--3----| 
----------------------------|----------------------------| 


----------------------------|----------------------------| 
----------------------------|----------------------------| 
----------------------------|----------------------------| 
--0--0--0--0--0--0--0--0----|--1--1--1--0--0--0--0--0----| 
--1--1--1--1--1--1--1--1----|--1--1--1--1--1--1--1--1----| 
----------------------------|----------------------------| 


----------------------------|----------------------------| 
----------------------------|----------------------------| 
--------0L-0L-0L-0--0L-0L---|--0L-0--0L-0L-0L-0--0L-0L---| 
--1--1--1--1--1--1--1--1----|--3--3--3--3--3--3--3--1----| 
--3--3--3--3--3--3--3--3----|--3--3--3--3--3--3--3--3----| 
----------------------------|----------------------------| 


----------------------------|----------------------------| 
----------------------------|----------------------------| 
--0L-0--0L-0L-0L-0--0L-0L---|--0L-0--0L-0L-0L-0--0L-0L---| 
--0--0--0--0--0--0--0--0----|--1--1--1--0--0--0--0--0----| 
--1--1--1--1--1--1--1--1----|--1--1--1--1--1--1--1--1----| 
----------------------------|----------------------------| 


----------------------------|----------------------------| 
----------------------------|----------------------------| 
--0L-0--0L-0L-0L-0--0L-0L---|--0L-0--0L-0L-0L-0--0L-0L---| 
--1--1--1--1--1--1--1--1----|--3--3--3--3--3--3--3--1----| 
--3--3--3--3--3--3--3--3----|--3--3--3--3--3--3--3--3----| 
----------------------------|----------------------------| 


----------------------------|----------------------------| 
----------------------------|----------------------------| 
--0L-0--0L-0L-0L-0--0L-0L---|--0L-0--0L-0L-0L-0--0L-0----| 
--0--0--0--0--0--0--0--0----|--1--1--1--0--0--0--0--0----| 
--1--1--1--1--1--1--1--1----|--1--1--1--1--1--1--1--1----| 
----------------------------|----------------------------| 


----------------------------|----------------------------| 
----------------------------|----------------------------| 
----------------------------|----------------------------| 
--1--1--1--1--1--1--1--1----|--1--1--1--1--1--1--1--1----| 
--3--3--3--3--3--3--3--3----|--3--3--3--3--3--3--3--3----| 
----------------------------|----------------------------| 


----------------------------|----------------------------| 
----------------------------|----------------------------| 
----------------------------|----------------------------| 
--0--0--0--0--0--0--0--0----|--0--0--0--0--0--0--0--0----| 
--1--1--1--1--1--1--1--1----|--1--1--1--1--1--1--1--1----| 
----------------------------|----------------------------| 


----------------------------|----------------------------| 
----------------------------|----------------------------| 
----------------------------|----------------------------| 
--1--1--1--1--1--1--1--1----|--1--1--1--1--1--1--1--1----| 
--3--3--3--3--3--3--3--3----|--3--3--3--3--3--3--3--3----| 
----------------------------|----------------------------| 


----------------------------|----------------------------| 
----------------------------|----------------------------| 
----------------------------|----------------------------| 
--0--0--0--0--0--0--0--0----|--1--1--1--0--0--0--0--0----| 
--1--1--1--1--1--1--1--1----|--1--1--1--1--1--1--1--1----| 
----------------------------|----------------------------| 


----------------------------|----------------------------| 
----------------------------|----------------------------| 
----------------------------|----------------------------| 
--1--1--1--1--1--1--1--1----|--1--1--1--1--1--1--1--1----| 
--3--3--3--3--3--3--3--3----|--3--3--3--3--3--3--3--3----| 
----------------------------|----------------------------| 


----------------------------|----------------------------| 
----------------------------|----------------------------| 
----------------------------|----------------------------| 
--0--0--0--0--0--0--0--0----|--0--0--0--0--0--0--0--0----| 
--1--1--1--1--1--1--1--1----|--1--1--1--1--1--1--1--1----| 
----------------------------|----------------------------| 


----------------------------|----------------------------| 
----------------------------|----------------------------| 
----------------------------|----------------------------| 
--1--1--1--1--1--1--1--1----|--1--1--1--1--1--1--1--1----| 
--3--3--3--3--3--3--3--3----|--3--3--3--3--3--3--3--3----| 
----------------------------|----------------------------| 


----------------------------|----------------------------| 
----------------------------|----------------------------| 
----------------------------|----------------------------| 
--0--0--0--0--0--0--0--0----|--1--1--1--0--0--0--0--0----| 
--1--1--1--1--1--1--1--1----|--1--1--1--1--1--1--1--1----| 
----------------------------|----------------------------| 


--6-----6-----6-----6-------|--8-----8-----8-----8--6----| 
-----8-----8-----8-----8----|-----8-----8-----8----------| 
----------------------------|----------------------------| 
----------------------------|----------------------------| 
----------------------------|----------------------------| 
----------------------------|----------------------------| 


--5-----5-----5-----5-------|--6-----6-----5-----6-------| 
-----6-----6-----6-----6----|-----6-----6-----6-----6----| 
----------------------------|----------------------------| 
----------------------------|----------------------------| 
----------------------------|----------------------------| 
----------------------------|----------------------------| 


--6-----6-----6-----6-------|--8-----8-----8-----8--6----| 
-----8-----8-----8-----8----|-----8-----8-----8----------| 
----------------------------|----------------------------| 
----------------------------|----------------------------| 
----------------------------|----------------------------| 
----------------------------|----------------------------| 


--5-----5-----5-----5-------|--5-----5-----5-----5--6----|| 
-----6-----6-----6-----6----|-----6-----6-----6----------|| 
----------------------------|----------------------------|| 
----------------------------|----------------------------|| 
----------------------------|----------------------------|| 
----------------------------|----------------------------|| 


-6--6--6--6--6--6--6--6----|--8--8--8--8--8--8--8--6----| 
-8--8--8--8--8--8--8--8----|--8--8--8--8--8--8--8--8----| 
o7--7--7--7--7--7--7--7----|--7--7--7--7--7--7--7--7----| 
o--------------------------|----------------------------| 
---------------------------|----------------------------| 
---------------------------|----------------------------| 


--5--5--5--5--5--5--5--5----|--6--6--6--5--5--5--5--5----| 
--6--6--6--6--6--6--6--6----|--6--6--6--6--6--6--6--6----| 
--5--5--5--5--5--5--5--5----|--5--5--5--5--5--5--5--5----| 
----------------------------|----------------------------| 
----------------------------|----------------------------| 
----------------------------|----------------------------| 


--6--6--6--6--6--6--6--6----|--8--8--8--8--8--8--8--6----| 
--8--8--8--8--8--8--8--8----|--8--8--8--8--8--8--8--8----| 
--7--7--7--7--7--7--7--7----|--7--7--7--7--7--7--7--7----| 
----------------------------|----------------------------| 
----------------------------|----------------------------| 
----------------------------|----------------------------| 


--5--5--5--5--5--5--5--5----|--6--6--6--5--5--5--5--5---|| 
--6--6--6--6--6--6--6--6----|--6--6--6--6--6--6--6--6---|| 
--5--5--5--5--5--5--5--5----|--5--5--5--5--5--5--5--5--o|| 
----------------------------|--------------------------o|| 
----------------------------|---------------------------|| 
----------------------------|---------------------------|| 


----------------------------|----------------------------| 
----------------------------|----------------------------| 
--------0L-0L-0L-0--0L-0L---|--0L-0--0L-0L-0L-0--0L-0L---| 
--1--1--1--1--1--1--1--1----|--3--3--3--3--3--3--3--1----| 
--3--3--3--3--3--3--3--3----|--3--3--3--3--3--3--3--3----| 
----------------------------|----------------------------| 


----------------------------|----------------------------| 
----------------------------|----------------------------| 
--0L-0--0L-0L-0L-0--0L-0L---|--0L-0--0L-0L-0L-0--0L-0L---| 
--0--0--0--0--0--0--0--0----|--1--1--1--0--0--0--0--0----| 
--1--1--1--1--1--1--1--1----|--1--1--1--1--1--1--1--1----| 
----------------------------|----------------------------| 


----------------------------|----------------------------| 
----------------------------|----------------------------| 
--0L-0--0L-0L-0L-0--0L-0L---|--0L-0--0L-0L-0L-0--0L-0L---| 
--1--1--1--1--1--1--1--1----|--3--3--3--3--3--3--3--1----| 
--3--3--3--3--3--3--3--3----|--3--3--3--3--3--3--3--3----| 
----------------------------|----------------------------| 


----------------------------|----------------------------| 
----------------------------|----------------------------| 
--0L-0--0L-0L-0L-0--0L-0L---|--0L-0--0L-0L-0L-0--0L-0----| 
--0--0--0--0--0--0--0--0----|--1--1--1--0--0--0--0--0----| 
--1--1--1--1--1--1--1--1----|--1--1--1--1--1--1--1--1----| 
----------------------------|----------------------------| 


----------------------------|----------------------------| 
----------------------------|----------------------------| 
----------------------------|----------------------------| 
--1--1--1--1--1--1--1--1----|--1--1--1--1--1--1--1--1----| 
--3--3--3--3--3--3--3--3----|--3--3--3--3--3--3--3--3----| 
----------------------------|----------------------------| 


----------------------------|----------------------------| 
----------------------------|----------------------------| 
----------------------------|----------------------------| 
--0--0--0--0--0--0--0--0----|--0--0--0--0--0--0--0--0----| 
--1--1--1--1--1--1--1--1----|--1--1--1--1--1--1--1--1----| 
----------------------------|----------------------------| 


----------------------------|----------------------------| 
----------------------------|----------------------------| 
----------------------------|----------------------------| 
--1--1--1--1--1--1--1--1----|--1--1--1--1--1--1--1--1----| 
--3--3--3--3--3--3--3--3----|--3--3--3--3--3--3--3--3----| 
----------------------------|----------------------------| 


----------------------------|----------------------------|| 
----------------------------|----------------------------|| 
----------------------------|----------------------------|| 
--0--0--0--0--0--0--0--0----|--1--1--1--0--0--0--0--0----|| 
--1--1--1--1--1--1--1--1----|--1--1--1--1--1--1--1--1----|| 
----------------------------|----------------------------|| 


---------------------------|----------------------------| 
---------------------------|----------------------------| 
o--------------------------|----------------------------| 
o1--1--1--1--1--1--1--1----|--1--1--1--1--1--1--1--1----| 
-3--3--3--3--3--3--3--3----|--3--3--3--3--3--3--3--3----| 
---------------------------|----------------------------| 


----------------------------|---------------------------|| 
----------------------------|---------------------------|| 
----------------------------|--------------------------o|| 
--0--0--0--0--0--0--0--0----|--0--0--0--0--0--0--0--0--o|| 
--1--1--1--1--1--1--1--1----|--1--1--1--1--1--1--1--1---|| 
----------------------------|---------------------------|| 


----------------------------|----------------------------| 
----------------------------|----------------------------| 
----------------------------|----------------------------| 
--1--1--1--1--1--1--1--1----|--1--1--1--1--1--1--1--1----| 
--3--3--3--3--3--3--3--3----|--3--3--3--3--3--3--3--3----| 
----------------------------|----------------------------| 


----------------------------|----------------------------| 
----------------------------|----------------------------| 
----------------------------|----------------------------| 
--0--0--0--0--0--0--0--0----|--0--0--0--0--0--0--0--0----| 
--1--1--1--1--1--1--1--1----|--1--1--1--1--1--1--1--1----| 
----------------------------|----------------------------| 


--6-----6-----6-----6-------|--8-----8-----8-----8--6----| 
-----8-----8-----8-----8----|-----8-----8-----8----------| 
----------------------------|----------------------------| 
----------------------------|----------------------------| 
----------------------------|----------------------------| 
----------------------------|----------------------------| 


--5-----5-----5-----5-------|--6-----6-----5-----6-------| 
-----6-----6-----6-----6----|-----6-----6-----6-----6----| 
----------------------------|----------------------------| 
----------------------------|----------------------------| 
----------------------------|----------------------------| 
----------------------------|----------------------------| 


--6-----6-----6-----6-------|--8-----8-----8-----8--6----| 
-----8-----8-----8-----8----|-----8-----8-----8----------| 
----------------------------|----------------------------| 
----------------------------|----------------------------| 
----------------------------|----------------------------| 
----------------------------|----------------------------| 


--5-----5-----5-----5-------|--5-----5-----5-----5--6----|| 
-----6-----6-----6-----6----|-----6-----6-----6----------|| 
----------------------------|----------------------------|| 
----------------------------|----------------------------|| 
----------------------------|----------------------------|| 
----------------------------|----------------------------|| 


-6--6--6--6--6--6--6--6----|--8--8--8--8--8--8--8--6----| 
-8--8--8--8--8--8--8--8----|--8--8--8--8--8--8--8--8----| 
o7--7--7--7--7--7--7--7----|--7--7--7--7--7--7--7--7----| 
o--------------------------|----------------------------| 
---------------------------|----------------------------| 
---------------------------|----------------------------| 


--5--5--5--5--5--5--5--5----|--6--6--6--5--5--5--5--5----| 
--6--6--6--6--6--6--6--6----|--6--6--6--6--6--6--6--6----| 
--5--5--5--5--5--5--5--5----|--5--5--5--5--5--5--5--5----| 
----------------------------|----------------------------| 
----------------------------|----------------------------| 
----------------------------|----------------------------| 


--6--6--6--6--6--6--6--6----|--8--8--8--8--8--8--8--6----| 
--8--8--8--8--8--8--8--8----|--8--8--8--8--8--8--8--8----| 
--7--7--7--7--7--7--7--7----|--7--7--7--7--7--7--7--7----| 
----------------------------|----------------------------| 
----------------------------|----------------------------| 
----------------------------|----------------------------| 


--5--5--5--5--5--5--5--5----|--6--6--6--5--5--5--5--5---||--3L---|--3----| 
--6--6--6--6--6--6--6--6----|--6--6--6--6--6--6--6--6---||--3L---|--3----| 
--5--5--5--5--5--5--5--5----|--5--5--5--5--5--5--5--5--o||--3L---|--3----| 
----------------------------|--------------------------o||-------|-------| 
----------------------------|---------------------------||-------|-------| 
----------------------------|---------------------------||-------|-------| 


--1L---|--1----|--3L---|--3----|--1L---|--1----|--18-18-18-18-18-18-18-18---| 
--3L---|--3----|--3L---|--3----|--3L---|--3----|----------------------------| 
--2L---|--2----|--3L---|--3----|--2L---|--2----|----------------------------| 
-------|-------|-------|-------|-------|-------|----------------------------| 
-------|-------|-------|-------|-------|-------|----------------------------| 
-------|-------|-------|-------|-------|-------|----------------------------| 


--18-18-18-18-18-18-18-18---|--17-17-17-17-17-17-17-17---| 
----------------------------|----------------------------| 
----------------------------|----------------------------| 
----------------------------|----------------------------| 
----------------------------|----------------------------| 
----------------------------|----------------------------| 


--17-17-17-17-17-17-17-17---|--18-18-18-18-18-18-18-18---| 
----------------------------|----------------------------| 
----------------------------|----------------------------| 
----------------------------|----------------------------| 
----------------------------|----------------------------| 
----------------------------|----------------------------| 


--18-18-18-18-18-20-20-18---|--17-17-17-17-17-17-17-17---| 
----------------------------|----------------------------| 
----------------------------|----------------------------| 
----------------------------|----------------------------| 
----------------------------|----------------------------| 
----------------------------|----------------------------| 


--17-17-17-17-17-17-17-17---|--6--6--6--6--6--6--6--6----| 
----------------------------|--8--8--8--8--8--8--8--8----| 
----------------------------|--7--7--7--7--7--7--7--7----| 
----------------------------|----------------------------| 
----------------------------|----------------------------| 
----------------------------|----------------------------| 


--8--8--8--8--8--8--8--6----|--5--5--5--5--5--5--5--5----| 
--8--8--8--8--8--8--8--8----|--6--6--6--6--6--6--6--6----| 
--7--7--7--7--7--7--7--7----|--5--5--5--5--5--5--5--5----| 
----------------------------|----------------------------| 
----------------------------|----------------------------| 
----------------------------|----------------------------| 


--6--6--6--5--5--5--5--5----|--6--6--6--6--6--6--6--6----| 
--6--6--6--6--6--6--6--6----|--8--8--8--8--8--8--8--8----| 
--5--5--5--5--5--5--5--5----|--7--7--7--7--7--7--7--7----| 
----------------------------|----------------------------| 
----------------------------|----------------------------| 
----------------------------|----------------------------| 


--8--8--8--8--8--8--8--6----|--5--5--5--5--5--5--5--5----| 
--8--8--8--8--8--8--8--8----|--6--6--6--6--6--6--6--6----| 
--7--7--7--7--7--7--7--7----|--5--5--5--5--5--5--5--5----| 
----------------------------|----------------------------| 
----------------------------|----------------------------| 
----------------------------|----------------------------| 


--6--6--6--5--5--5--5--5----|--6--6--6--6--6--6--6--6----| 
--6--6--6--6--6--6--6--6----|--8--8--8--8--8--8--8--8----| 
--5--5--5--5--5--5--5--5----|--7--7--7--7--7--7--7--7----| 
----------------------------|----------------------------| 
----------------------------|----------------------------| 
----------------------------|----------------------------| 


--8--8--8--8--8--8--8--6----|--5--5--5--5--5--5--5--5----| 
--8--8--8--8--8--8--8--8----|--6--6--6--6--6--6--6--6----| 
--7--7--7--7--7--7--7--7----|--5--5--5--5--5--5--5--5----| 
----------------------------|----------------------------| 
----------------------------|----------------------------| 
----------------------------|----------------------------| 


--6--6--6--5--5--5--5--5----|--6--6--6--6--6--6--6--6----| 
--6--6--6--6--6--6--6--6----|--8--8--8--8--8--8--8--8----| 
--5--5--5--5--5--5--5--5----|--7--7--7--7--7--7--7--7----| 
----------------------------|----------------------------| 
----------------------------|----------------------------| 
----------------------------|----------------------------| 


--8--8--8--8--8--8--8--6----|--5--5--5--5--5--5--5--5----| 
--8--8--8--8--8--8--8--8----|--6--6--6--6--6--6--6--6----| 
--7--7--7--7--7--7--7--7----|--5--5--5--5--5--5--5--5----| 
----------------------------|----------------------------| 
----------------------------|----------------------------| 
----------------------------|----------------------------| 


--6--6--6--5--6--6--6--5----|| 
--6--6--6--6--6--6--6--6----|| 
--5--5--5--5--5--5--5--5----|| 
----------------------------|| 
----------------------------|| 
----------------------------|| 
  

top 5 | i pixel
top rock'n roll
Outras músicas do artista letras do(a) I Pixel
Top cifras »Top artistas »
Petaxxon Comunicação Online
Cifras.com.br - Melhor e mais completo site de cifras e tablaturas do Brasil
Mais de 1 milhão de acordes de músicas cadastradas desde 2003
As informações contidas no nosso site são colaborações de seus usuários e podem conter erros, sendo assim, não nos responsabilizamos sobre nenhuma destas.
close
menos
mais
close
Cor dos acordes:

Cor da letra:

 

save
close
close
 
redimensionar