Cifras e Tablaturas
I Pixel

I Pixel

Non Importa Se Sto Morendo Se Ad Uccidermi Sei Tu (lead Gtr)

Cifras Cancelar Versão de Impressão
cifras

I Pixel - Non Importa Se Sto Morendo Se Ad Uccidermi Sei Tu (lead Gtr)

fixar na tela  
Exibindo: vídeo-aula ver clipes redimensionar

Tom:

  
E |-------|----|----|----|-----------12-------------------------------12L-----| 
B |-------|----|----|----|--------------------12----------------------12L-----| 
G |-------|----|----|----|--12----------------------------12----------12L-----| 
D |-------|----|----|----|----------------------------------------------------| 
A |-------|----|----|----|----------------------------------------------------| 
E |-------|----|----|----|----------------------------------------------------| 


--12---|----|----||---------------------------|-----12----12----12---------| 
--12---|----|----||-12----12-12-12-12-12-12---|--15L15-14L14-12L12----12L--| 
--12---|----|----||o--------------------------|--------------------14------| 
-------|----|----||o--------------------------|----------------------------| 
-------|----|----||---------------------------|----------------------------| 
-------|----|----||---------------------------|----------------------------| 


-----------15L15L15-14------|-----------15L15L15-14------| 
--12----12L12L12L12---------|--12----12L12L12L12---------| 
----------------------------|-----14---------------------| 
----------------------------|----------------------------| 
----------------------------|----------------------------| 
----------------------------|----------------------------| 


----------------------------|-----12----12----12---------| 
--12----12-12-12-12-12-12---|--15L15-14L14-12L12----12L--| 
----------------------------|--------------------14------| 
----------------------------|----------------------------| 
----------------------------|----------------------------| 
----------------------------|----------------------------| 


-----------15L15L15-14------|----------------------------|-------|--15---| 
--12----12L12L12L12---------|--12----12-14-12------------|-------|--12---| 
----------------------------|-----14----------14-12s9L---|--9----|--12---| 
----------------------------|----------------------------|-------|-------| 
----------------------------|----------------------------|-------|-------| 
----------------------------|----------------------------|-------|-------| 


--9----|--10-------9-----10-9-------|--12---|--15---|--9----| 
--10---|--10-------10----10-10------|--12---|--12---|--10---| 
--9----|--9--------9-----9--9-------|--12---|--12---|--9----| 
-------|----------------------------|-------|-------|-------| 
-------|----------------------------|-------|-------|-------| 
-------|----------------------------|-------|-------|-------| 


--10-------9--9--10-9-------|--12----x--12-x--12-x--15L--| 
--10-------10-10-10-10------|--12----x--12-x--12-x--12L--| 
--9--------9--9--9--9-------|--12----x--12-x--12-x--12L--| 
----------------------------|----------------------------| 
----------------------------|----------------------------| 
----------------------------|----------------------------| 


--15----x--15-x--15-x--9L---|--9-----x--9--x--9--x--10L--| 
--12----x--12-x--12-x--10L--|--10----x--10-x--10-x--10L--| 
--12----x--12-x--12-x--9L---|--9-----x--9--x--9--x--9L---| 
----------------------------|----------------------------| 
----------------------------|----------------------------| 
----------------------------|----------------------------| 


--10-------9-----10-9-------|--12----x--12-x--12-x--15L--| 
--10-------10----10-10------|--12----x--12-x--12-x--12L--| 
--9--------9-----9--9-------|--12----x--12-x--12-x--12L--| 
----------------------------|----------------------------| 
----------------------------|----------------------------| 
----------------------------|----------------------------| 


--15----x--15-x--15-x--9L---|--9-----x--9--x--9--x--10L--| 
--12----x--12-x--12-x--10L--|--10----x--10-x--10-x--10L--| 
--12----x--12-x--12-x--9L---|--9-----x--9--x--9--x--9L---| 
----------------------------|----------------------------| 
----------------------------|----------------------------| 
----------------------------|----------------------------| 


--10-------9-----10-9-------|--0--0--0--0--0--0--0--0----| 
--10-------10----10-10------|--0--0--0--0--0--0--0--0----| 
--9--------9-----9--9-------|--4--4--4--4--4--4--4--4----| 
----------------------------|----------------------------| 
----------------------------|----------------------------| 
----------------------------|----------------------------| 


--0--0--0--0--0--0--0--0----|--0--0--0--0--0--0--0--0----| 
--3--3--3--3--3--3--3--3----|--2--2--2--2--2--2--2--2----| 
--4--4--4--4--4--4--4--4----|--2--2--2--2--2--2--2--2----| 
----------------------------|----------------------------| 
----------------------------|----------------------------| 
----------------------------|----------------------------| 


--0--0--0--0--0--0--0--0----|--0--0--0--0--0--0--0--0----| 
--2--2--2--2--2--0--0--0----|--0--0--0--0--0--0--0--0----| 
--2--2--2--2--2--2--2--2----|--4--4--4--4--4--4--4--4----| 
----------------------------|----------------------------| 
----------------------------|----------------------------| 
----------------------------|----------------------------| 


--0--0--0--0--0--0--0--0----|--0--0--0--0--0--0--0--0----|--0s------------| 
--3--3--3--3--3--3--3--3----|--2--2--2--2--2--2--2--2----|--2s------------| 
--4--4--4--4--4--4--4--4----|--2--2--2--2--2--2--2--2----|--2s------------| 
----------------------------|----------------------------|----------------| 
----------------------------|----------------------------|----------------| 
----------------------------|----------------------------|----------------| 


----------------------------|-----12----12----12---------| 
--12----12-12-12-12-12-12---|--15L15-14L14-12L12----12L--| 
----------------------------|--------------------14------| 
----------------------------|----------------------------| 
----------------------------|----------------------------| 
----------------------------|----------------------------| 


-----------15L15L15-14------|-----------15L15L15-14------| 
--12----12L12L12L12---------|--12----12L12L12L12---------| 
----------------------------|-----14---------------------| 
----------------------------|----------------------------| 
----------------------------|----------------------------| 
----------------------------|----------------------------| 


----------------------------|-----12----12----12---------| 
--12----12-12-12-12-12-12---|--15L15-14L14-12L12----12L--| 
----------------------------|--------------------14------| 
----------------------------|----------------------------| 
----------------------------|----------------------------| 
----------------------------|----------------------------| 


-----------15L15L15-14------|----------------------------|-------|--15---| 
--12----12L12L12L12---------|--12----12-14-12------------|-------|--12---| 
----------------------------|-----14----------14-12s9L---|--9----|--12---| 
----------------------------|----------------------------|-------|-------| 
----------------------------|----------------------------|-------|-------| 
----------------------------|----------------------------|-------|-------| 


--9----|--10-------9-----10-9-------|--12---|--15---|--9----| 
--10---|--10-------10----10-10------|--12---|--12---|--10---| 
--9----|--9--------9-----9--9-------|--12---|--12---|--9----| 
-------|----------------------------|-------|-------|-------| 
-------|----------------------------|-------|-------|-------| 
-------|----------------------------|-------|-------|-------| 


--10-------9--9--10-9-------|--12----x--12-x--12-x--15L--| 
--10-------10-10-10-10------|--12----x--12-x--12-x--12L--| 
--9--------9--9--9--9-------|--12----x--12-x--12-x--12L--| 
----------------------------|----------------------------| 
----------------------------|----------------------------| 
----------------------------|----------------------------| 


--15----x--15-x--15-x--9L---|--9-----x--9--x--9--x--10L--| 
--12----x--12-x--12-x--10L--|--10----x--10-x--10-x--10L--| 
--12----x--12-x--12-x--9L---|--9-----x--9--x--9--x--9L---| 
----------------------------|----------------------------| 
----------------------------|----------------------------| 
----------------------------|----------------------------| 


--10-------9-----10-9-------|--12----x--12-x--12-x--15L--| 
--10-------10----10-10------|--12----x--12-x--12-x--12L--| 
--9--------9-----9--9-------|--12----x--12-x--12-x--12L--| 
----------------------------|----------------------------| 
----------------------------|----------------------------| 
----------------------------|----------------------------| 


--15----x--15-x--15-x--9----|--9L----9--9L-9--9--x--10---| 
--12----x--12-x--12-x--10---|--10L---10-10L10-10-x--10---| 
--12----x--12-x--12-x--9----|--9L----9--9L-9--9--x--9----| 
----------------------------|----------------------------| 
----------------------------|----------------------------| 
----------------------------|----------------------------| 


--10-10-9--9--9--9--9-------||---------------------------| 
--10-10-10-10-10-10-10------||-12----12-12L12-12-12-12---| 
--9--9--9--9--9--9--9-------||o--------------------------| 
----------------------------||o--------------------------| 
----------------------------||---------------------------| 
----------------------------||---------------------------| 


----------------------------|----------------------------| 
--15-15-15-14-14-14-14-14---|----------------------------| 
----------------------------|--12-12-12-11-11-11-14------| 
----------------------------|----------------------------| 
----------------------------|----------------------------| 
----------------------------|----------------------------| 


----------------------------|----------------------------| 
----------------------------|--12----12-12L12-12-12-12---| 
--14-------14---------------|----------------------------| 
----------------------------|----------------------------| 
----------------------------|----------------------------| 
----------------------------|----------------------------| 


----------------------------|----------------------------| 
--15-15-15-14-14-14-14-14---|----------------------------| 
----------------------------|--12-12-12-11-11-11-14------| 
----------------------------|----------------------------| 
----------------------------|----------------------------| 
----------------------------|----------------------------| 


----------------------------| 
--------------------7--8----| 
--14------------------------| 
----------------------------| 
----------------------------| 
----------------------------| 


-------------------------------------------------------------------------------- 
--------------------------------------7s-8-----------------------------------7-- 
--7-----------7-----------7----------------------------------------------------- 
-------------------------------------------------------------------------------- 
-------------------------------------------------------------------------------- 
-------------------------------------------------------------------------------- 


-----------------------| 
-----------------------| 
-----------------------| 
-----------------------| 
-----------------------| 
-----------------------| 


-------------------------------------------------------------------------------- 
--------------------------------------7s-8-----------------------------------7-- 
--6-----------6-----------6----------------------------------------------------- 
-------------------------------------------------------------------------------- 
-------------------------------------------------------------------------------- 
-------------------------------------------------------------------------------- 


-----------------------| 
-----------------------| 
-----------------------| 
-----------------------| 
-----------------------| 
-----------------------| 


-------------------------------------------------------------------------------- 
--------------------------------------7s-8-----------------------8-----------7-- 
--4-----------4-----------4----------------------------------------------------- 
-------------------------------------------------------------------------------- 
-------------------------------------------------------------------------------- 
-------------------------------------------------------------------------------- 


-----------------------| 
---------8-------------| 
-----------------------| 
-----------------------| 
-----------------------| 
-----------------------| 


-------------------------------------------------------------------------------- 
--------------------------------------7s-8-----------------------8-----------7-- 
--4-----------4-----------4----------------------------------------------------- 
-------------------------------------------------------------------------------- 
-------------------------------------------------------------------------------- 
-------------------------------------------------------------------------------- 


-----------------------| 
---------8-------------| 
-----------------------| 
-----------------------| 
-----------------------| 
-----------------------| 


-------------------------------------------------------------------------------- 
--------------------------------------7s-8-----------------------------------7-- 
--7-----------7-----------7----------------------------------------------------- 
-------------------------------------------------------------------------------- 
-------------------------------------------------------------------------------- 
-------------------------------------------------------------------------------- 


-----------------------| 
-----------------------| 
-----------------------| 
-----------------------| 
-----------------------| 
-----------------------| 


-------------------------------------------------------------------------------- 
--------------------------------------7s-8-----------------------------------7-- 
--6-----------6-----------6----------------------------------------------------- 
-------------------------------------------------------------------------------- 
-------------------------------------------------------------------------------- 
-------------------------------------------------------------------------------- 


-----------------------|----------------|-------|----|----| 
-----------------------|----------------|-------|----|----| 
-----------------------|-----4L---------|--4----|----|----| 
-----------------------|----------------|-------|----|----| 
-----------------------|----------------|-------|----|----| 
-----------------------|----------------|-------|----|----| 


-----------12-------------------------------12L-----|--12---|----|----|--12---| 
--------------------12----------------------12L-----|--12---|----|----|--12---| 
--12----------------------------12----------12L-----|--12---|----|----|--12---| 
----------------------------------------------------|-------|----|----|-------| 
----------------------------------------------------|-------|----|----|-------| 
----------------------------------------------------|-------|----|----|-------| 


--15---|--9----|--10-10-10-9-----10-9-------|--12---|--15---| 
--12---|--10---|--10-10-10-10----10-10------|--12---|--12---| 
--12---|--9----|--9--9--9--9-----9--9-------|--12---|--12---| 
-------|-------|----------------------------|-------|-------| 
-------|-------|----------------------------|-------|-------| 
-------|-------|----------------------------|-------|-------| 


--9-----9--9--9--9--9--9----|--10-10-10-9--9--10-9-------| 
--10----10-10-10-10-10-10---|--10-10-10-10-10-10-10------| 
--9-----9--9--9--9--9--9----|--9--9--9--9--9--9--9-------| 
----------------------------|----------------------------| 
----------------------------|----------------------------| 
----------------------------|----------------------------| 


----------------------------|----------------------------| 
--12----12-12L12-12-12-12---|--15-15-15-14-14-14-14-14---| 
----------------------------|----------------------------| 
----------------------------|----------------------------| 
----------------------------|----------------------------| 
----------------------------|----------------------------| 


----------------------------|----------------------------| 
----------------------------|----------------------------| 
--12-12-12-11-11-11-14------|--14-------14---------------| 
----------------------------|----------------------------| 
----------------------------|----------------------------| 
----------------------------|----------------------------| 


----------------------------|----------------------------| 
--12----12-12L12-12-12-12---|--15-15-15-14-14-14-14-14---| 
----------------------------|----------------------------| 
----------------------------|----------------------------| 
----------------------------|----------------------------| 
----------------------------|----------------------------| 


----------------------------|----------------------------| 
----------------------------|--------------------7--8----| 
--12-12-12-11-11-11-14------|--14------------------------| 
----------------------------|----------------------------| 
----------------------------|----------------------------| 
----------------------------|----------------------------| 


-------------------------------------------------------------------------------- 
--------------------------------------7s-8-----------------------------------7-- 
--7-----------7-----------7----------------------------------------------------- 
-------------------------------------------------------------------------------- 
-------------------------------------------------------------------------------- 
-------------------------------------------------------------------------------- 


-----------------------| 
-----------------------| 
-----------------------| 
-----------------------| 
-----------------------| 
-----------------------| 


-------------------------------------------------------------------------------- 
--------------------------------------7s-8-----------------------------------7-- 
--6-----------6-----------6----------------------------------------------------- 
-------------------------------------------------------------------------------- 
-------------------------------------------------------------------------------- 
-------------------------------------------------------------------------------- 


-----------------------| 
-----------------------| 
-----------------------| 
-----------------------| 
-----------------------| 
-----------------------| 


-------------------------------------------------------------------------------- 
--------------------------------------7s-8-----------------------8-----------7-- 
--4-----------4-----------4----------------------------------------------------- 
-------------------------------------------------------------------------------- 
-------------------------------------------------------------------------------- 
-------------------------------------------------------------------------------- 


-----------------------| 
---------8-------------| 
-----------------------| 
-----------------------| 
-----------------------| 
-----------------------| 


-------------------------------------------------------------------------------- 
--------------------------------------7s-8-----------------------8-----------7-- 
--4-----------4-----------4----------------------------------------------------- 
-------------------------------------------------------------------------------- 
-------------------------------------------------------------------------------- 
-------------------------------------------------------------------------------- 


-----------------------| 
---------8-------------| 
-----------------------| 
-----------------------| 
-----------------------| 
-----------------------| 


-------------------------------------------------------------------------------- 
--------------------------------------7s-8-----------------------------------7-- 
--7-----------7-----------7----------------------------------------------------- 
-------------------------------------------------------------------------------- 
-------------------------------------------------------------------------------- 
-------------------------------------------------------------------------------- 


-----------------------| 
-----------------------| 
-----------------------| 
-----------------------| 
-----------------------| 
-----------------------| 


-------------------------------------------------------------------------------- 
--------------------------------------7s-8-----------------------------------7-- 
--6-----------6-----------6----------------------------------------------------- 
-------------------------------------------------------------------------------- 
-------------------------------------------------------------------------------- 
-------------------------------------------------------------------------------- 


-----------------------|--0--0--0--0--0--0--0--0----| 
-----------------------|--0--0--0--0--0--0--0--0----| 
-----------------------|--4--4--4--4--4--4--4--4----| 
-----------------------|----------------------------| 
-----------------------|----------------------------| 
-----------------------|----------------------------| 


--0--0--0--0--0--0--0--0----|--0--0--0--0--0--0--0--0----| 
--3--3--3--3--3--3--3--3----|--2--2--2--2--2--2--2--2----| 
--4--4--4--4--4--4--4--4----|--2--2--2--2--2--2--2--2----| 
----------------------------|----------------------------| 
----------------------------|----------------------------| 
----------------------------|----------------------------| 


--0--0--0--0--0--0--0--0----|--0--0--0--0--0--0--0--0----| 
--2--2--2--2--2--0--0--0----|--0--0--0--0--0--0--0--0----| 
--2--2--2--2--2--2--2--2----|--4--4--4--4--4--4--4--4----| 
----------------------------|----------------------------| 
----------------------------|----------------------------| 
----------------------------|----------------------------| 


--0--0--0--0--0--0--0--0----|--0--0--0--0--0--0--0--0----| 
--3--3--3--3--3--3--3--3----|--2--2--2--2--2--2--2--2----| 
--4--4--4--4--4--4--4--4----|--2--2--2--2--2--2--2--2----| 
----------------------------|----------------------------| 
----------------------------|----------------------------| 
----------------------------|----------------------------| 


--0--0--0--0--0--0--0--0----||-0--0--0--0--0--0--0--0----| 
--2--2--2--2--2--0--0--0----||-0--0--0--0--0--0--0--0----| 
--2--2--2--2--2--2--2--2----||o4--4--4--4--4--4--4--4----| 
----------------------------||o--------------------------| 
----------------------------||---------------------------| 
----------------------------||---------------------------| 


--0--0--0--0--0--0--0--0----|--0--0--0--0--0--0--0--0----| 
--3--3--3--3--3--3--3--3----|--2--2--2--2--2--2--2--2----| 
--4--4--4--4--4--4--4--4----|--2--2--2--2--2--2--2--2----| 
----------------------------|----------------------------| 
----------------------------|----------------------------| 
----------------------------|----------------------------| 


--0--0--0--0--0--0--0--0---||----------------------------| 
--2--2--2--2--2--0--0--0---||--------------10-10-12-12---| 
--2--2--2--2--2--2--2--2--o||--9--9--12-12---------------| 
--------------------------o||----------------------------| 
---------------------------||----------------------------| 
---------------------------||----------------------------| 


----------------------------|----------------------------| 
--------------10-10-12-12---|--------------10-10---------| 
--9--9--12-12---------------|--9--9--12-12-------12-12---| 
----------------------------|----------------------------| 
----------------------------|----------------------------| 
----------------------------|----------------------------| 


----------------------------|----------------------------| 
--------------10s12s10------|--------------10-10---------| 
--9--9--12-12----------12---|--9--9--12-12-------12-12---| 
----------------------------|----------------------------| 
----------------------------|----------------------------| 
----------------------------|----------------------------| 


----------------------------|----------------------------| 
--------------10-10-12-12---|--10-10---------------------| 
--9--9--12-12---------------|--------12-12-9--9--9--9----| 
----------------------------|----------------------------| 
----------------------------|----------------------------| 
----------------------------|----------------------------| 


----------------------------|-------|| 
----------------------------|-------|| 
--9--9--9--9--9s-11s9s-7----|--9----|| 
----------------------------|-------|| 
----------------------------|-------|| 
----------------------------|-------|| 
  

top 5 | i pixel
top rock'n roll
Outras músicas do artista letras do(a) I Pixel
Top cifras »Top artistas »
Petaxxon Comunicação Online
Cifras.com.br - Melhor e mais completo site de cifras e tablaturas do Brasil
Mais de 1 milhão de acordes de músicas cadastradas desde 2003
As informações contidas no nosso site são colaborações de seus usuários e podem conter erros, sendo assim, não nos responsabilizamos sobre nenhuma destas.
close
menos
mais
close
Cor dos acordes:

Cor da letra:

 

save
close
close
 
redimensionar