Cifras e Tablaturas
I Pixel

I Pixel

Non Importa Se Sto Morendo Se Ad Uccidermi Sei Tu (rhythm Gtr)

Cifras Cancelar Versão de Impressão
cifras

I Pixel - Non Importa Se Sto Morendo Se Ad Uccidermi Sei Tu (rhythm Gtr)

fixar na tela  
Exibindo: vídeo-aula ver clipes redimensionar

Tom:

  
                                                              
E |----------------------------|----------------------------| 
B |----------------------------|----------------------------| 
G |----------------------------|----------------------------| 
D |----------------------------|----------------------------| 
A |--2-----2--2--2--2--2--2L---|--2--2--2--2--2--2--2--2----| 
E |--0-----0--0--0--0--0--3L---|--3--3--3--3--3--3--3--3----| 

                                                           
----------------------------|----------------------------| 
----------------------------|----------------------------| 
----------------------------|----------------------------| 
----------------------------|----------------------------| 
--4-----5--5--5--4--4--4----|--4--4--5--5--5--4--4--0----| 
--5-----5--5--5--5--5--5----|--5--5--5--5--5--5--5--0----| 

                                                           
----------------------------|----------------------------| 
----------------------------|----------------------------| 
----------------------------|----------------------------| 
----------------------------|----------------------------| 
--2-----2--2--2--2--2--2L---|--2--2--2--2--2--2--2--2----| 
--0-----0--0--0--0--0--3L---|--3--3--3--3--3--3--3--3----| 

                                                            
----------------------------|----------------------------|| 
----------------------------|----------------------------|| 
----------------------------|----------------------------|| 
----------------------------|----------------------------|| 
--4-----5--5--5--4--4--4----|--4--4--5--5--5--4--4--0----|| 
--5-----5--5--5--5--5--5----|--5--5--5--5--5--5--5--0----|| 

                                                          
---------------------------|----------------------------| 
---------------------------|----------------------------| 
o--------------------------|----------------------------| 
o--------------------------|----------------------------| 
-2-----2--2--2--2--2--2L---|--2--2--2--2--2--2--2--2----| 
-0-----0--0--0--0--0--3L---|--3--3--3--3--3--3--3--3----| 

                                                           
----------------------------|----------------------------| 
----------------------------|----------------------------| 
----------------------------|----------------------------| 
----------------------------|----------------------------| 
--4-----5--5--5--4--4--4----|--4--4--5--5--5--4--4--0----| 
--5-----5--5--5--5--5--5----|--5--5--5--5--5--5--5--0----| 

                                                           
----------------------------|----------------------------| 
----------------------------|----------------------------| 
----------------------------|----------------------------| 
----------------------------|----------------------------| 
--2-----2--2--2--2--2--2L---|--2--2--2--2--2--2--2--2----| 
--0-----0--0--0--0--0--3L---|--3--3--3--3--3--3--3--3----| 

                                                           
----------------------------|----------------------------| 
----------------------------|----------------------------| 
----------------------------|----------------------------| 
----------------------------|----------------------------| 
--4-----5--5--5--4--4--4----|--4--4--5--5--5--4--4--0----| 
--5-----5--5--5--5--5--5----|--5--5--5--5--5--5--5--0----| 

                                                           
----------------------------|----------------------------| 
----------------------------|----------------------------| 
----------------------------|----------------------------| 
----------------------------|----------------------------| 
--2-----2--2--2--2--2--2L---|--2--2--2--2--2--2--2--2----| 
--0-----0--0--0--0--0--3L---|--3--3--3--3--3--3--3--3----| 

                                                           
----------------------------|----------------------------| 
----------------------------|----------------------------| 
----------------------------|----------------------------| 
----------------------------|----------------------------| 
--4-----5--5--5--4--4--4----|--4--4--5--5--5--4--4--0----| 
--5-----5--5--5--5--5--5----|--5--5--5--5--5--5--5--0----| 

                                                           
----------------------------|----------------------------| 
----------------------------|----------------------------| 
----------------------------|----------------------------| 
----------------------------|----------------------------| 
--2-----2--2--2--2--2--2L---|--2--2--2--2--2--2--2--2----| 
--0-----0--0--0--0--0--3L---|--3--3--3--3--3--3--3--3----| 

                                                           
----------------------------|----------------------------| 
----------------------------|----------------------------| 
----------------------------|----------------------------| 
----------------------------|----------------------------| 
--4-----5--5--5--4--4--4----|--4--4--5--5--5--4--4--0----| 
--5-----5--5--5--5--5--5----|--5--5--5--5--5--5--5--0----| 

                                                           
----------------------------|----------------------------| 
----------------------------|----------------------------| 
----------------------------|----------------------------| 
----------------------------|----------------------------| 
--2-----2--2--2--2--2--2L---|--2--2--2--2--2--2--2--2----| 
--0-----0--0--0--0--0--3L---|--3--3--3--3--3--3--3--3----| 

                                                           
----------------------------|----------------------------| 
----------------------------|----------------------------| 
----------------------------|----------------------------| 
----------------------------|----------------------------| 
--4-----5--5--5--4--4--4----|--4--4--5--5--5--4--4--0----| 
--5-----5--5--5--5--5--5----|--5--5--5--5--5--5--5--0----| 

                                                           
----------------------------|----------------------------| 
----------------------------|----------------------------| 
----------------------------|----------------------------| 
----------------------------|----------------------------| 
--2-----2--2--2--2--2--2L---|--2--2--2--2--2--2--2--2----| 
--0-----0--0--0--0--0--3L---|--3--3--3--3--3--3--3--3----| 

                                                           
----------------------------|-----------------3--3--3----| 
----------------------------|-----------------3--3--3----| 
----------------------------|----------------------------| 
----------------------------|----------------------------| 
--4-----5--5--5--4--4--4----|--4--4--5--5--5-------------| 
--5-----5--5--5--5--5--5----|--5--5--5--5--5-------------| 

                                                           
-----0-----0-----0-----0----|-----0-----0-----0-----0----| 
--0-----0-----0-----0-------|--3-----3-----3-----3-------| 
----------------------------|----------------------------| 
----------------------------|----------------------------| 
----------------------------|----------------------------| 
----------------------------|----------------------------| 

                                                           
-----0-----0-----0-----0----|-----0-----0-----3--3--3----| 
--2-----2-----2-----2-------|--2-----2-----2--3--3--3----| 
----------------------------|----------------------------| 
----------------------------|----------------------------| 
----------------------------|----------------------------| 
----------------------------|----------------------------| 

                                                           
-----0-----0-----0-----0----|-----0-----0-----0-----0----| 
--0-----0-----0-----0-------|--3-----3-----3-----3-------| 
----------------------------|----------------------------| 
----------------------------|----------------------------| 
----------------------------|----------------------------| 
----------------------------|----------------------------| 

                                                           
-----0-----0-----0-----0----|-----0-----0-----3--3--3----| 
--5-----5-----5-----5-------|--5-----5-----5--3--3--3----| 
----------------------------|----------------------------| 
----------------------------|----------------------------| 
----------------------------|----------------------------| 
----------------------------|----------------------------| 

                                                           
----------------------------|----------------------------| 
----------------------------|----------------------------| 
----------------------------|----------------------------| 
----------------------------|----------------------------| 
--2-----2--2--2--2--2--2L---|--2--2--2--2--2--2--2--2----| 
--0-----0--0--0--0--0--3L---|--3--3--3--3--3--3--3--3----| 

                                                           
----------------------------|----------------------------| 
----------------------------|----------------------------| 
----------------------------|----------------------------| 
----------------------------|----------------------------| 
--4-----5--5--5--4--4--4----|--4--4--5--5--5--4--4--0----| 
--5-----5--5--5--5--5--5----|--5--5--5--5--5--5--5--0----| 

                                                           
----------------------------|----------------------------| 
----------------------------|----------------------------| 
----------------------------|----------------------------| 
----------------------------|----------------------------| 
--2-----2--2--2--2--2--2L---|--2--2--2--2--2--2--2--2----| 
--0-----0--0--0--0--0--3L---|--3--3--3--3--3--3--3--3----| 

                                                           
----------------------------|----------------------------| 
----------------------------|----------------------------| 
----------------------------|----------------------------| 
----------------------------|----------------------------| 
--4-----5--5--5--4--4--4----|--4--4--5--5--5--4--4--0----| 
--5-----5--5--5--5--5--5----|--5--5--5--5--5--5--5--0----| 

                                                           
----------------------------|----------------------------| 
----------------------------|----------------------------| 
----------------------------|----------------------------| 
----------------------------|----------------------------| 
--2-----2--2--2--2--2--2L---|--2--2--2--2--2--2--2--2----| 
--0-----0--0--0--0--0--3L---|--3--3--3--3--3--3--3--3----| 

                                                           
----------------------------|----------------------------| 
----------------------------|----------------------------| 
----------------------------|----------------------------| 
----------------------------|----------------------------| 
--4-----5--5--5--4--4--4----|--4--4--5--5--5--4--4--0----| 
--5-----5--5--5--5--5--5----|--5--5--5--5--5--5--5--0----| 

                                                           
----------------------------|----------------------------| 
----------------------------|----------------------------| 
----------------------------|----------------------------| 
----------------------------|----------------------------| 
--2-----2--2--2--2--2--2L---|--2--2--2--2--2--2--2--2----| 
--0-----0--0--0--0--0--3L---|--3--3--3--3--3--3--3--3----| 

                                                           
----------------------------|----------------------------| 
----------------------------|----------------------------| 
----------------------------|----------------------------| 
----------------------------|----------------------------| 
--4-----5--5--5--4--4--4----|--4--4--5--5--5--4--4--0----| 
--5-----5--5--5--5--5--5----|--5--5--5--5--5--5--5--0----| 

                                                           
----------------------------|----------------------------| 
----------------------------|----------------------------| 
----------------------------|----------------------------| 
----------------------------|----------------------------| 
--2-----2--2--2--2--2--2L---|--2--2--2--2--2--2--2--2----| 
--0-----0--0--0--0--0--3L---|--3--3--3--3--3--3--3--3----| 

                                                           
----------------------------|----------------------------| 
----------------------------|----------------------------| 
----------------------------|----------------------------| 
----------------------------|----------------------------| 
--4-----5--5--5--4--4--4----|--4--4--5--5--5--4--4--0----| 
--5-----5--5--5--5--5--5----|--5--5--5--5--5--5--5--0----| 

                                                           
----------------------------|----------------------------| 
----------------------------|----------------------------| 
----------------------------|----------------------------| 
----------------------------|----------------------------| 
--2-----2--2--2--2--2--2L---|--2--2--2--2--2--2--2--2----| 
--0-----0--0--0--0--0--3L---|--3--3--3--3--3--3--3--3----| 

                                                            
----------------------------|-----5-----5-----5--5--5----|| 
----------------------------|-----5-----5-----5--5--5----|| 
----------------------------|----------------------------|| 
----------------------------|----------------------------|| 
--4-----5--5--5--4--4--4----|--4g-4--4g-4--4g-4--4--4----|| 
--5-----5--5--5--5--5--5----|--5g-5--5g-5--5g-5--5--5----|| 

 n     n  V     n  V  n       n     n  V     n  V  n      
-3-----3--3L-3--3--3--3----|--3-----3--3L-3--3--3--3----| 
-3-----3--3L-3--3--3--3----|--3-----3--3L-3--3--3--3----| 
o0-----0--0L-0--0--0--0----|--0-----0--0L-0--0--0--0----| 
o0-----0--0L-0--0--0--0----|--0-----0--0L-0--0--0--0----| 
-2-----2--2L-2--2--2--2----|--2-----2--2L-2--2--2--2----| 
-3-----3--3L-3--3--3--0----|--2-----2--2L-2--2--2--2----| 

  n     n  V     n  V  n       n     n  V     n  V  n      
--0-----0--0L-0--0--0--0----|--0-----0--0L-0--0--0--0----| 
--0-----0--0L-0--0--0--0----|--0-----0--0L-0--0--0--0----| 
--0-----0--0L-0--0--0--0----|--0-----0--0L-0--0--0--0----| 
--2-----2--2L-2--2--2--2----|--2-----2--2L-2--2--2--2----| 
--2-----2--2L-2--2--2--2----|--2-----2--2L-2--2--2--2----| 
--0-----0--0L-0--0--0--0----|--0-----0--0L-0--0--0--0----| 

  n     n  V     n  V  n       n     n  V     n  V  n      
--3-----3--3L-3--3--3--3----|--3-----3--3L-3--3--3--3----| 
--3-----3--3L-3--3--3--3----|--3-----3--3L-3--3--3--3----| 
--0-----0--0L-0--0--0--0----|--0-----0--0L-0--0--0--0----| 
--0-----0--0L-0--0--0--0----|--0-----0--0L-0--0--0--0----| 
--2-----2--2L-2--2--2--2----|--2-----2--2L-2--2--2--2----| 
--3-----3--3L-3--3--3--0----|--2-----2--2L-2--2--2--2----| 

  n     n  V     n  V  n       n     n  V     n  V  n      
--0-----0--0L-0--0--0--0----|--0-----0--0L-0--0--0--0----| 
--0-----0--0L-0--0--0--0----|--0-----0--0L-0--0--0--0----| 
--0-----0--0L-0--0--0--0----|--0-----0--0L-0--0--0--0----| 
--2-----2--2L-2--2--2--2----|--2-----2--2L-2--2--2--2----| 
--2-----2--2L-2--2--2--2----|--2-----2--2L-2--2--2--2----| 
--0-----0--0L-0--0--0--0----|--0-----0--0L-0--0--0--0----| 

  n     n  V     n  V  n       n     n  V     n  V  n      
--3-----3--3L-3--3--3--3----|--3-----3--3L-3--3--3--3----| 
--3-----3--3L-3--3--3--3----|--3-----3--3L-3--3--3--3----| 
--0-----0--0L-0--0--0--0----|--0-----0--0L-0--0--0--0----| 
--0-----0--0L-0--0--0--0----|--0-----0--0L-0--0--0--0----| 
--2-----2--2L-2--2--2--2----|--2-----2--2L-2--2--2--2----| 
--3-----3--3L-3--3--3--0----|--2-----2--2L-2--2--2--2----| 

  n     n  V     n  V  n       n     n  V     n  V  n      
--0-----0--0L-0--0--0--0----|--0-----0--0L-0--0--0--0----| 
--0-----0--0L-0--0--0--0----|--0-----0--0L-0--0--0--0----| 
--0-----0--0L-0--0--0--0----|--0-----0--0L-0--0--0--0----| 
--2-----2--2L-2--2--2--2----|--2-----2--2L-2--2--2--2----| 
--2-----2--2L-2--2--2--2----|--2-----2--2L-2--2--2--2----| 
--0-----0--0L-0--0--0--0----|--0-----0--0L-0--0--0--0----| 

  n     n  V     n  V  n       n     n  V     n  V  n      
--3-----3--3L-3--3--3--3----|--3-----3--3L-3--3--3--0----| 
--3-----3--3L-3--3--3--3----|--3-----3--3L-3--3--3--0----| 
--0-----0--0L-0--0--0--0----|--0-----0--0L-0--0--0--0----| 
--0-----0--0L-0--0--0--0----|--0-----0--0L-0--0--0--0----| 
--2-----2--2L-2--2--2--2----|--2-----2--2L-2--2--2--2----| 
--3-----3--3L-3--3--3--0----|--2-----2--2L-2--2--2--2----| 

                                                           
----------------------------|----------------------------| 
----------------------------|----------------------------| 
----------------------------|----------------------------| 
----------------------------|----------------------------| 
--2-----2--2--2--2--2--2L---|--2--2--2--2--2--2--2--2----| 
--0-----0--0--0--0--0--3L---|--3--3--3--3--3--3--3--3----| 

                                                           
----------------------------|----------------------------| 
----------------------------|----------------------------| 
----------------------------|----------------------------| 
----------------------------|----------------------------| 
--4-----5--5--5--4--4--4----|--4--4--5--5--5--4--4--0----| 
--5-----5--5--5--5--5--5----|--5--5--5--5--5--5--5--0----| 

                                                           
----------------------------|----------------------------| 
----------------------------|----------------------------| 
----------------------------|----------------------------| 
----------------------------|----------------------------| 
--2-----2--2--2--2--2--2L---|--2--2--2--2--2--2--2--2----| 
--0-----0--0--0--0--0--3L---|--3--3--3--3--3--3--3--3----| 

                                                                           
----------------------------|----------------------------|-------|-------| 
----------------------------|----------------------------|-------|-------| 
----------------------------|----------------------------|-------|-------| 
----------------------------|----------------------------|-------|-------| 
--4-----5--5--5--4--4--4----|--4--4--5--5--5--4--4--0----|--2----|--2----| 
--5-----5--5--5--5--5--5----|--5--5--5--5--5--5--5--0----|--0----|--3----| 

                                                      
-------|----------------------------|-------|-------| 
-------|----------------------------|-------|-------| 
-------|----------------------------|-------|-------| 
-------|----------------------------|-------|-------| 
--4----|--4--4--5--5-----4--4-------|--2----|--2----| 
--5----|--5--5--5--5-----5--5-------|--0----|--3----| 

                                                           
----------------------------|-----5-----5-----5--5--5----| 
----------------------------|-----5-----5-----5--5--5----| 
----------------------------|----------------------------| 
----------------------------|----------------------------| 
--4-----5--5--5--4--4--4----|--4g-4--4g-4--4g-4--4--4----| 
--5-----5--5--5--5--5--5----|--5g-5--5g-5--5g-5--5--5----| 

  n     n  V     n  V  n       n     n  V     n  V  n      
--3-----3--3L-3--3--3--3----|--3-----3--3L-3--3--3--3----| 
--3-----3--3L-3--3--3--3----|--3-----3--3L-3--3--3--3----| 
--0-----0--0L-0--0--0--0----|--0-----0--0L-0--0--0--0----| 
--0-----0--0L-0--0--0--0----|--0-----0--0L-0--0--0--0----| 
--2-----2--2L-2--2--2--2----|--2-----2--2L-2--2--2--2----| 
--3-----3--3L-3--3--3--0----|--2-----2--2L-2--2--2--2----| 

  n     n  V     n  V  n       n     n  V     n  V  n      
--0-----0--0L-0--0--0--0----|--0-----0--0L-0--0--0--0----| 
--0-----0--0L-0--0--0--0----|--0-----0--0L-0--0--0--0----| 
--0-----0--0L-0--0--0--0----|--0-----0--0L-0--0--0--0----| 
--2-----2--2L-2--2--2--2----|--2-----2--2L-2--2--2--2----| 
--2-----2--2L-2--2--2--2----|--2-----2--2L-2--2--2--2----| 
--0-----0--0L-0--0--0--0----|--0-----0--0L-0--0--0--0----| 

  n     n  V     n  V  n       n     n  V     n  V  n      
--3-----3--3L-3--3--3--3----|--3-----3--3L-3--3--3--3----| 
--3-----3--3L-3--3--3--3----|--3-----3--3L-3--3--3--3----| 
--0-----0--0L-0--0--0--0----|--0-----0--0L-0--0--0--0----| 
--0-----0--0L-0--0--0--0----|--0-----0--0L-0--0--0--0----| 
--2-----2--2L-2--2--2--2----|--2-----2--2L-2--2--2--2----| 
--3-----3--3L-3--3--3--0----|--2-----2--2L-2--2--2--2----| 

  n     n  V     n  V  n       n     n  V     n  V  n      
--0-----0--0L-0--0--0--0----|--0-----0--0L-0--0--0--0----| 
--0-----0--0L-0--0--0--0----|--0-----0--0L-0--0--0--0----| 
--0-----0--0L-0--0--0--0----|--0-----0--0L-0--0--0--0----| 
--2-----2--2L-2--2--2--2----|--2-----2--2L-2--2--2--2----| 
--2-----2--2L-2--2--2--2----|--2-----2--2L-2--2--2--2----| 
--0-----0--0L-0--0--0--0----|--0-----0--0L-0--0--0--0----| 

  n     n  V     n  V  n       n     n  V     n  V  n      
--3-----3--3L-3--3--3--3----|--3-----3--3L-3--3--3--3----| 
--3-----3--3L-3--3--3--3----|--3-----3--3L-3--3--3--3----| 
--0-----0--0L-0--0--0--0----|--0-----0--0L-0--0--0--0----| 
--0-----0--0L-0--0--0--0----|--0-----0--0L-0--0--0--0----| 
--2-----2--2L-2--2--2--2----|--2-----2--2L-2--2--2--2----| 
--3-----3--3L-3--3--3--0----|--2-----2--2L-2--2--2--2----| 

  n     n  V     n  V  n       n     n  V     n  V  n      
--0-----0--0L-0--0--0--0----|--0-----0--0L-0--0--0--0----| 
--0-----0--0L-0--0--0--0----|--0-----0--0L-0--0--0--0----| 
--0-----0--0L-0--0--0--0----|--0-----0--0L-0--0--0--0----| 
--2-----2--2L-2--2--2--2----|--2-----2--2L-2--2--2--2----| 
--2-----2--2L-2--2--2--2----|--2-----2--2L-2--2--2--2----| 
--0-----0--0L-0--0--0--0----|--0-----0--0L-0--0--0--0----| 

  n     n  V     n  V  n       n     n  V     n  V  n 
--3-----3--3L-3--3--3--3----|--3-----3--3L-3--3--3--0----|----|----|----| 
--3-----3--3L-3--3--3--3----|--3-----3--3L-3--3--3--0----|----|----|----| 
--0-----0--0L-0--0--0--0----|--0-----0--0L-0--0--0--0----|----|----|----| 
--0-----0--0L-0--0--0--0----|--0-----0--0L-0--0--0--0----|----|----|----| 
--2-----2--2L-2--2--2--2----|--2-----2--2L-2--2--2--2----|----|----|----| 
--3-----3--3L-3--3--3--0----|--2-----2--2L-2--2--2--2----|----|----|----| 


--0-------------------------|----------------|----|----| 
-----------0----------------|----------------|----|----| 
--------------------0-------|----------------|----|----| 
----------------------------|--2-------------|----|----| 
----------------------------|----------------|----|----| 
----------------------------|----------------|----|----| 


-----------------3--3--3----||----0-----0-----0-----0----| 
-----------------3--3--3----||-0-----0-----0-----0-------| 
----------------------------||o--------------------------| 
----------------------------||o--------------------------| 
----------------------------||---------------------------| 
----------------------------||---------------------------| 


-----0-----0-----0-----0----|-----0-----0-----0-----0----| 
--3-----3-----3-----3-------|--2-----2-----2-----2-------| 
----------------------------|----------------------------| 
----------------------------|----------------------------| 
----------------------------|----------------------------| 
----------------------------|----------------------------| 


-----0-----0-----3--3--3---||-----0-----0-----0-----0----| 
--2-----2-----2--3--3--3---||--0-----0-----0-----0-------| 
--------------------------o||----------------------------| 
--------------------------o||----------------------------| 
---------------------------||----------------------------| 
---------------------------||----------------------------| 


-----0-----0-----0-----0----|-----0-----0-----0-----0----| 
--3-----3-----3-----3-------|--2-----2-----2-----2-------| 
----------------------------|----------------------------| 
----------------------------|----------------------------| 
----------------------------|----------------------------| 
----------------------------|----------------------------| 


-----0-----0-----3--3--3----|-----0-----0-----0-----0----| 
--2-----2-----2--3--3--3----|--0-----0-----0-----0-------| 
----------------------------|----------------------------| 
----------------------------|----------------------------| 
----------------------------|----------------------------| 
----------------------------|----------------------------| 


-----0-----0-----0-----0----|-----0-----0-----0-----0----| 
--3-----3-----3-----3-------|--5-----5-----5-----5-------| 
----------------------------|----------------------------| 
----------------------------|----------------------------| 
----------------------------|----------------------------| 
----------------------------|----------------------------| 


-----0-----0-----3--3--3----|--0----|| 
--5-----5-----5--3--3--3----|--0----|| 
----------------------------|-------|| 
----------------------------|-------|| 
----------------------------|-------|| 
----------------------------|-------|| 
  

top 5 | i pixel
top rock'n roll
Outras músicas do artista letras do(a) I Pixel
Top cifras »Top artistas »
Petaxxon Comunicação Online
Cifras.com.br - Melhor e mais completo site de cifras e tablaturas do Brasil
Mais de 1 milhão de acordes de músicas cadastradas desde 2003
As informações contidas no nosso site são colaborações de seus usuários e podem conter erros, sendo assim, não nos responsabilizamos sobre nenhuma destas.
close
menos
mais
close
Cor dos acordes:

Cor da letra:

 

save
close
close
 
redimensionar