Cifras e Tablaturas
Ichiko Aoba

Ichiko Aoba

Tsuyoku Naru

Cifras Cancelar Versão de Impressão
cifras

Ichiko Aoba - Tsuyoku Naru

fixar na tela  
Exibindo: vídeo-aula ver clipes redimensionar

Tom:

  Ichiko Aoba

e|---------------------------------------------------------------------------------------| 
B|-6--6-6-----6--6-6----6--6-6-----6----------------------6--6-6-----6--6-6------4-------| 
G|-8--8-8-----8--8-8----8--8-8-----8----------------------8--8-8-----8--8-8------5----7--| 
D|-8--8-8-----8--8-8----8--8-8-----8-(use guitar as drum)-8--8-8-----8--8-8-----------8--| 
A|---------------------------------------------------------------------------------------| 
E|---------6---------6----------6---------------------------------6----------6-4----6----| 

e|-------------------------------------------------| 
B|-6--6-6-----6--6-6----6--6-6------4-------6--6-6-| 
G|-8--8-8-----8--8-8----8--8-8------5----7--8--8-8-| 
D|-8--8-8-----8--8-8----8--8-8-----------8--8--8-8-| 
A|-------------------------------------------------| 
E|---------6----------6---------6-4----6-----------| 

e|---------------------------------------------6-----| 
B|----6------6----6--4--3--4----4------4-------6---8-| 
G|----7------7----5-------------1------1-------------| 
D|---------------------------3-----3-3----3------8---| 
A|-5-----5-5----5-3----------------------------------| 
E|------------------------------------------6--------| 

e|----6-------6-------------------------------4-----6--| 
B|-------------------4-------4-----------4-------6-----| 
G|----8-------8------5-------5--------5----5-----------| 
D|---------------------------------3-------------------| 
A|-6-----6-6----6-3-----3-3-----3-------------------8--| 
E|-----------------------------------------------------| 

e|-----------------------------------| 
B|-6--6-6-----6--6-6----6--6-6-----6-| 
G|-8--8-8-----8--8-8----8--8-8-----8-| 
D|-8--8-8-----8--8-8----8--8-8-----8-| 
A|-----------------------------------| 
E|---------6---------6----------6----| 

e|-------------------------------------------------------------------------| 
B|---------4---4--------4--------3-------3---------4-------4-------4-------| 
G|-----------5--------7--------3-------5-------5-------5-------5-------5---| 
D|------------------8--------5-------3-------5---5---5---5---5---5---5---5-| 
A|---------------------------------5-------3-------------------------------| 
E|-6--5--4-------6--------3------------------------------------------------| 

e|-------------------------------------------------------6--| 
B|----------3------------4---4----------------4----------8--| 
G|------3-------3------5---5-5------------5-------5---------| 
D|----5---5---5---5---------------------6---6---6---6-------| 
A|------------------3----------3----------------------------| 
E|-3-----------------------------6-5-4----------------6-----| 

Repeat all of above 

e|----------------------------------------| 
B|-6--6-6-----6--6-6----6--6-6-----6------| 
G|-8--8-8-----8--8-8----8--8-8-----8------| 
D|-8--8-8-----8--8-8----8--8-8-----8------| 
A|--------------------------------------6-| 
E|---------6---------6----------6-----6---| 
                                      * * 
  

top 5 | ichiko aoba
top rock'n roll
Outras músicas do artista letras do(a) Ichiko Aoba
Top cifras »Top artistas »
Petaxxon Comunicação Online
Cifras.com.br - Melhor e mais completo site de cifras e tablaturas do Brasil
Mais de 1 milhão de acordes de músicas cadastradas desde 2003
As informações contidas no nosso site são colaborações de seus usuários e podem conter erros, sendo assim, não nos responsabilizamos sobre nenhuma destas.
close
menos
mais
close
Cor dos acordes:

Cor da letra:

 

save
close
close
 
redimensionar