Cifras e Tablaturas
Il teatro degli orrori

Il teatro degli orrori

Benzodiazepina

Cifras Cancelar Versão de Impressão
cifras

Il teatro degli orrori - Benzodiazepina

fixar na tela  
Exibindo: vídeo-aula ver clipes redimensionar

Tom:

  
00:00 Intro 

e|-----------|-----------|-----------|-----------|-----------|-----------|-----------|-----------|    | 
B|---4---4---|---4---4---|---4---4---|---4---4---|---3---3---|---3---3---|---3---3---|---3---3---|    | 
G|-----------|-----------|-----------|-----------|-----------|-----------|-----------|-----------|    | 
D|-----------|-----------|-----------|-----------|-----------|-----------|-----------|-----------|    |  x2 
A|-5---5---5-|-5---5---5-|-5---5---5-|-5---5---5-|-3---3---3-|-3---3---3-|-3---3---3-|-3---3---3-|    | 
E|-----------|-----------|-----------|-----------|-----------|-----------|-----------|-----------|    | 

Stati di ansia, squilibri emotivi collegati a stress situazionali o ambientali o ad 
affezioni organiche acute o croniche. 

Distonie neurovegetative, somatizzazioni dell'ansia a carico di vari organi ed 
apparati. 

Sindromi psiconevrotiche, nevrosi depressive, agitazione psicomotoria, stati psicotici 
a forte componente ansiosa. 

Alterazioni dell'umore, disturbi del sonno di varia origine. 

Mio marito mi osserva come se fossi un'altra. 

Mi guarda negli occhi e mi chiede "come stai?" 


01:00 Chorus 1 

e|---------------|---------------|---------------|---------------|    | 
B|--6-6----------|--6-6----------|--6-6----------|--6-6----------|    | 
G|------8-7-5----|------8-7-5----|------8-7-5----|------8-7-5----|    | 
D|---------------|---------------|---------------|---------------|    | 
A|---------------|---------------|---------------|---------------|    | 
E|---------------|---------------|---------------|---------------|    | 
                                                                      |  x3 
e|---------------|---------------|---------------|---------------|    | 
B|--8-8----------|--8-8----------|--6-6----------|--6-6-8-6------|    | 
G|------8-7-5----|------8-7-5----|------8-7-8----|----------8----|    | 
D|---------------|---------------|---------------|---------------|    | 
A|---------------|---------------|---------------|---------------|    | 
E|---------------|---------------|---------------|---------------|    | 


Sonnolenza, e un torpore dentro che non avevo mai sentito prima, 

confusione e vertigini, e una gran tristezza che non credevo avrei sofferto mai, 

emozioni non ne provo più verso tutte quelle cose che mi sembravano così importanti, 


01:37 Verse 

e|-----------|-----------|-----------|-----------|-----------|-----------|-----------|-----------|    | 
B|---4---4---|---4---4---|---4---4---|---4---4---|---3---3---|-3---3---3-|---3---3---|-3---3---3-|    | 
G|-----------|-----------|-----------|-----------|-----------|-----------|-----------|-----------|    | 
D|-----------|-----------|-----------|-----------|-----------|-----------|-----------|-----------|    |  x2 
A|-5---5---5-|-5---5---5-|-5---5---5-|-5---5---5-|-3---3---3-|---3---3---|-3---3---3-|---3---3---|    | 
E|-----------|-----------|-----------|-----------|-----------|-----------|-----------|-----------|    | 

e poi collera! Di quelle incazzature che è meglio che non mi rivolgi la parola, 

incubi, incubi in continuazione, a volte ho paura di addormentarmi, altre invece 

non vedo l'ora di dormire, 

allucinazioni, psicosi, ansia, ed infine dipendenza, 

l'uso di benzodiazepine può condurre allo sviluppo di dipendenza fisica. 


02:00 Chorus 1 

e|---------------|---------------|---------------|---------------|    | 
B|--6-6----------|--6-6----------|--6-6----------|--6-6----------|    | 
G|------8-7-5----|------8-7-5----|------8-7-5----|------8-7-5----|    | 
D|---------------|---------------|---------------|---------------|    | 
A|---------------|---------------|---------------|---------------|    | 
E|---------------|---------------|---------------|---------------|    | 
                                                                      |  x2 
e|---------------|---------------|---------------|---------------|    | 
B|--8-8----------|--8-8----------|--6-6----------|--6-6-8-6------|    | 
G|------8-7-5----|------8-7-5----|------8-7-8----|----------8----|    | 
D|---------------|---------------|---------------|---------------|    | 
A|---------------|---------------|---------------|---------------|    | 
E|---------------|---------------|---------------|---------------|    | 

Mio marito mi osserva come se fossi un'altra, mi guarda negli occhi e mi chiede 

"come stai?" 

Ma come vuoi che stia! 

Come stai? Come stai? 


Ma no, ma dai, ma insomma, non è per solitudine, non è neanche per noia, me l'ha 

detto il dottore! 

Due di queste al giorno e si ritorna al lavoro, come se niente fosse. 


02:35 Chorus 2 

e|---------------|----------------|---------------|---------------|    | 
B|-8-8-----------|--8-8-----------|--8-8----------|--8-8----------|    | 
G|-----10-9-7----|------10-9-7----|------10-9-7---|------10-9-7---|    | 
D|---------------|----------------|---------------|---------------|    | 
A|---------------|----------------|---------------|---------------|    | 
E|---------------|----------------|---------------|---------------|    | 
                                                                       |  x3 
e|---------------|----------------|---------------|---------------|    | 
B|-10-10---------|--10-10---------|--8-8----------|--8-8-10-8-----|    | 
G|-------10-9-7--|--------10-9-7--|------10-9-10--|-----------10--|    | 
D|---------------|----------------|---------------|---------------|    | 
A|---------------|----------------|---------------|---------------|    | 
E|---------------|----------------|---------------|---------------|    | 

Due di queste al giorno, due di queste al giorno, forse tre come se niente fosse, 
me l'ha detto il dottore! 

Due di queste al giorno, due di queste al giorno, forse tre, forse tre. 

Due di queste al giorno, due di queste al giorno, forse tre,  


03:12 Outro 

e|---------------|----------------|----------------|----------------|---------------------x---| 
B|-10-10---------|--10-10---------|--10-10---------|--10-10---------|--13\----------------x---| 
G|-------10-9-7--|--------10-9-7--|--------10-9-7--|--------10-9-7--|---------------------x---| 
D|---------------|----------------|----------------|----------------|---------------------x---| 
A|---------------|----------------|----------------|----------------|---------------------x---| 
E|---------------|----------------|----------------|----------------|---------------------x---| 


forse quattro, cinque, sei, dieci, e prenditi la scatola intera! Fai quello che ti pare! 


************************************ 

| x   Dead note 
| \   Slide down 

************************************ 
  

top 5 | il teatro degli orrori
top rock'n roll
Outras músicas do artista letras do(a) Il teatro degli orrori
Top cifras »Top artistas »
Petaxxon Comunicação Online
Cifras.com.br - Melhor e mais completo site de cifras e tablaturas do Brasil
Mais de 1 milhão de acordes de músicas cadastradas desde 2003
As informações contidas no nosso site são colaborações de seus usuários e podem conter erros, sendo assim, não nos responsabilizamos sobre nenhuma destas.
close
menos
mais
close
Cor dos acordes:

Cor da letra:

 

save
close
close
 
redimensionar