Cifras e Tablaturas
Impaled Nazarene

Impaled Nazarene

When All Golden Turned To Shit

Cifras Cancelar Versão de Impressão
cifras

Impaled Nazarene - When All Golden Turned To Shit

fixar na tela  
Exibindo: vídeo-aula ver clipes redimensionar

Tom:

  
Intro:

Riff 1 (x 4) 

D|---|-------|       |---|-------| 
A|---|-------|       |---|-------| 
F|---|-------|       |---|-------| 
C|---|-------| (x 3) |---|-------| 
G|-2-|-8-7-5-|       |-2-|-5-5-5-| 
D|-0-|-6-5-3-|       |-0-|-3-3-3-| 

Riff 2 
D|--------------------| 
A|--------------------| 
F|--------------------| 
C|--------------------| 
G|-5-4--7-3--5-4--7-3-| 
D|-3-2--5-1--3-2--5-1-| 

Riff 1 (x 4) 

D|---|-------|       |---|-------| 
A|---|-------|       |---|-------| 
F|---|-------|       |---|-------| 
C|---|-------| (x 3) |---|-------| 
G|-2-|-8-7-5-|       |-2-|-5-5-5-| 
D|-0-|-6-5-3-|       |-0-|-3-3-3-| 

Riff 2 
D|--------------------| 
A|--------------------| 
F|--------------------| 
C|--------------------| (x 4) 
G|-5-4--7-3--5-4--7-3-| 
D|-3-2--5-1--3-2--5-1-| 

Riff 1* 

D|---|-------|       |---|-------|---| 
A|---|-------|       |---|-------|---| 
F|---|-------|       |---|-------|---| 
C|---|-------| (x 3) |---|-------|---| 
G|-2-|-8-7-5-|       |-2-|-5-5-5-|-2-| 
D|-0-|-6-5-3-|       |-0-|-3-3-3-|-0-| 
  

top 5 | impaled nazarene
top heavy metal
Outras músicas do artista letras do(a) Impaled Nazarene
Top cifras »Top artistas »
Petaxxon Comunicação Online
Cifras.com.br - Melhor e mais completo site de cifras e tablaturas do Brasil
Mais de 1 milhão de acordes de músicas cadastradas desde 2003
As informações contidas no nosso site são colaborações de seus usuários e podem conter erros, sendo assim, não nos responsabilizamos sobre nenhuma destas.
close
menos
mais
close
Cor dos acordes:

Cor da letra:

 

save
close
close
 
redimensionar