Cifras e Tablaturas
Impaled

Impaled

Spirits Of The Dead

Cifras Cancelar Versão de Impressão Print

Impaled - Spirits Of The Dead

Tom:

  			Key
= after note = vibrato
^ after note = heavy vibrato 
\ = slide down
/ = slide up
+ = tap
h = hammer
p = pull
n = natural harmonic
s = pinching harmonic (squeal)
* = tremolo pick
t = trill
b = bend
|-3-| = triplet

n number above the tab = play the first part then the first finishing part
			 play the first part a second time and then play the second finishing part
			 etc.

Tune Down 2 1/2 Steps

Intro A

B  --------------------------------------------------------------------------------
F# --------------------------------------------------------------------------------
D  -------------------------------0-----------------------------------------4t5----
A  -2--------6--------3--------2--------3--2--------6--------5--------5------------
E  -2--------6--------3--------------3-----2--------6--------3-----------3---------
B  -0--------4--------1--------------------0--------4--------3---------------------

Intro B

B  ----------------------------------------------------------------------------------------------------
F# ----------------------------------------------------------------------------------------------------
D  ----------------------------------------8--b9--8------------------8-----------------------8--b9--8--
A  ----9------8--------------9-10-9---------------------9------8---------------9-10-9------------------
E  -7-----10-----6--------7----------7--6------------7-----10-----6---------7----------7--6------------
B  ----------------------------------------------------------------------------------------------------

Riff 1

B  -------------------------------------------------------------------------------------------------
F# -------------------------------------------------------------------------------------------------
D  -------------------------------------------------------------------------------------------------
A  -22-22-55-55-------44-44-11-11-44-44-44-44-44-44-22-22-55-55-------44-44-11-11-55-55-44-44-11-11-
E  -------------33-33-------------------------------------------33-33-------------------------------
B  -------------------------------------------------------------------------------------------------

Riff 1A

B  ---------------------------------------------------------------------------------------------------
F# ---------------------------------------------------------------------------------------------------
D  -----------------------------------88-88-88-88-----------------------------------88-88-99-99-88-88-
A  -------99-99-----------88-88-------------------------99-99-1010-1010-88-88-------------------------
E  -77-77-------1010-1010-------66-66-------------77-77-----------------------66-66-------------------
B  ---------------------------------------------------------------------------------------------------

Riff 2

B  ---------------------------------------------------------------
F# ---------------------------------------------------------------
D  ---------------------------------------------------4--4--3-----
A  ---10-9-10---9-7-9---9-7-9---7-5-7---5-4-5---5-4-5-2--4--3--3--
E  -7---------6-------5-------4-------3-------2----------2--1--3--
B  ------------------------------------------------------------1--

Riff 2A

B  ---------------------------------------------
F# ---------------------------------------------
D  ---------------------------------4--4--3-----
A  -----------------7----9----10----2--4--3--3--
E  -7----9----10-----------------------2--1--3--
B  ------------------------------------------1--

Riff 3

B  ---------------------------------------------------------
F# ---------------------------------------------------------
D  ---------------------------------------------------------
A  ---2--2---6----3-2--2-2-5-4----2--2---3----3-2--2-4-5-1--
E  ---2--2---6----3-2--2----------2--2---6----3-2--2--------
B  -0-0--0-4-4--0-1-0--0--------0-0--0-4-4--0-1-0--0--------

Riff 4

B  -------------------------------------------------------------------------------------
F# -------------------------------------------------------------------------------------
D  -------------------------------------------------------------------------------------
A  -2--2----------------2--2----------------2--2------2--2------2-2---2-2---2--2--2--2--
E  -2--2----------------2--2----------------2--2------2--2------2-2---2-2---2--2--2--2--
B  -0--0------------0-0-0--0------------0-0-0--0------0--0------0-0---0-0---0--0--0--0--

Riff 5

B  -------------------------------------------------
F# -------------------------------------------------
D  ----------------------------4--7--4-----4--7--4--
A  -2--5--8--5--2--5--8--5--6--4--7--4--3--4--7--4--
E  -2--5--8--5--2--5--8--5--6--2--5--2--6--2--5--2--
B  -0--3--6--3--0--3--6--3--4-----------4-----------

Riff 6

B  ---------------------------------------------------------------------------------------------------------------
F# ---------------------------------------------------------------------------------------------------------------
D  --------------------------------------------4-----3------------------------------------------------4-----3-----
A  ------5p2--------------1-------5p2----------4--5--3--3-------5p2--------------1-------5p2----------4-5-4-3-4-3-
E  ------------3------2-3---------------3------2--5--1--3-------------3------2-3---------------3------2-5-4-1-4-3-
B  -00-0-----0----0-0--------00-0-----0----0-0----3-----1--00-0-----0----0-0--------00-0-----0----0-0---3-2---2-1-
												      |-3-| |-3-|

Riff 7

B  ---------------------------------------
F# ---------------------------------------
D  ----------5------------------5---------
A  -2--------5----3----2--------5---------
E  -2--------3----3----2--------3----8----
B  -0-------------1----0------------------

Riff 7A

B  ----------------------------------------------------
F# ----------------------------------------------------
D  ----4---0----------------------4---1---4-----4-1--4-
A  -2----2---2-4-5----5---4-5---2---2---2--------------
E  ----------------3----3-------------------3-3--------
B  ----------------------------------------------------

Riff 8

B  -----------------------------------------------------------------------------
F# -----------------------------------------------------------------------------
D  ----------5------------------5-------5-----------5------------------5--------
A  -2--------5----3----2--------5----6--5--2--------5----3----2--------5--------
E  -2--------3----3----2--------3----6--3--2--------3----3----2--------3--------
B  -0-------------1----0-------------4-----0-------------1----0-----------------

Riff 9

B  -----------------------------------------------------------------
F# -----------------------------------------------------------------
D  -----------------------------------------------------------------
A  -----------------5--22-2-5-------4-------4-----------------------
E  -2-------2------------------33-3----33-3----33-3-3-------3-------
B  ----00-0----00-0------------------------------------11-1----11-1-

Riff 10

B  --------------------------------------------------------------------------
F# --------------------------------------------------------------------------
D  --------------------------------------------------------------------------
A  -2----------------8----------------2--------------4-5-4------4-5-1--------
E  -2----------------6----------------2--------------------------------------
B  -0----------------6----------------0--------------------------------------

B  --------------------------------------------------------------------------
F# --------------------------------------------------------------------------
D  --------------------------------------------------------------------------
A  -2----------------8----------------5--------------4-5-4------4-5-1--------
E  -2----------------6----------------3--------------------------------------
B  -0----------------6----------------3--------------------------------------

Riff 10A

B  --------------------------------------------------------------------------------------------------------------------
F# --------------------------------------------------------------------------------------------------------------------
D  --------------------------------------------------------------------------------------------------------------------
A  -------------------------------------------7--5h7-5---------7--5h7-5------------------------------------------------
E  -7-------10--9-10-7-------10--9-10-6----------------6----------------6-------9-------10---9h10-9-6-------10--9h10-9-
B  ----77-7-------------77-7-------------66-6-------------66-6-------------66-6----99-9----------------66-6------------

B  --------------------------------------------------------------------------------------------------------------------
F# --------------------------------------------------------------------------------------------------------------------
D  --------------------------------------------------------------------------------------------------------------------
A  -------------------------------------------7--5h7-5---------7--5h7-5------------------------------------------------
E  -7-------10--9-10-7-------10--9-10-6----------------6----------------6-------9-------10---9h10-9-6-------10--9h10-9-
B  ----77-7-------------77-7-------------66-6-------------66-6-------------66-6----99-9----------------66-6------------

Riff 11

B  --------------------------------------
F# --------------------------------------
D  ----------5-------------5----8--------
A  -2--------5--------2----5----8--------
E  -2--------3--------2----3----6--------
B  -0-----------------0------------------

Riff 12

B  ---------------------------------------------------------
F# ---------------------------------------------------------
D  ---------------------------------------------------------
A  -2-------------5-------------4---------------------------
E  ------------------------------------------3--------------
B  ----0-0-0-0-0-----0-0-0-0-0-----0-0-0-0-0----1-1-1-1-1-1-

Riff 12A

B  --------------------------------------------------------
F# --------------------------------------------------------
D  --------------------------------------------------------
A  ---------------2----------------------------3--3--3--3--
E  -----------------------------3--------------3--3--3--3--
B  -0--0-0-0-0-0-----0-0-0-0-0-----0-0-0-0-0-0-1--1--1--1--

Riff 13

B  -----------------------------------------------
F# -----------------------------------------------
D  -----------------------------------------------
A  -------2--4--5----5--4--------2--4--5-----5----
E  ----2-----------3----------2-----------3-------
B  -0----------------------0----------------------

Riff 14

B  ------------------------------------------------
F# ------------------------------------------------
D  ----------5-------------------------8--b9--8----
A  -2--------5----3-------9------8---------------2-
E  -2--------3----3----7-----10-----6------------2-
B  -0-------------1------------------------------0-

Riff 14A

B  ----------------------------------------------
F# ----------------------------------------------
D  ----------5-----------------------------------
A  -2--------5----5----2--5-----4--1--4-----4--2-
E  -2--------3----3----------3-----------2-----2-
B  -0-------------1----------------------------0-

Order

Intro A/Intro B x 1
Riff 1/1A x 4
Riff 2/2A x 1
Riff 3 x 4
Riff 4 x 1
Riff 5 x 2
Riff 6 x 2
Riff 7/7A x 2
Riff 8 x 1
Riff 9 x 4
Riff 10/10A x 1
Solo over Riff 11 x 8
Riff 12/12A x 4
Riff 13 x 2
Riff 12/12A x 2
Riff 12/13 x 2
Riff 7 x 3
Riff 14/14A x 1

Tabbed by Radiohater 2003
    	
fixar
fixar inscrever-se

enviado porenviado por: anônimo
cifra enviadaCorrigida por: sem correções
logo top cifrasComente
ico música do artistaMúsicas deste artista
ico curtiuCurtiu?
ico destaqueDestaque
Petaxxon Comunicação Online

Cifras.com.br - Melhor e mais completo site de cifras e tablaturas do Brasil Mais de 1 milhão de acordes de músicas cadastradas desde 2003
As informações contidas no nosso site são colaborações de seus usuários e podem conter erros, sendo assim, não nos responsabilizamos sobre nenhuma destas.

close
menos
mais
close
Cor dos acordes:

Cor da letra:

close
Alinhar acordes a direita Alinhar acordes a esquerda Alinhar acordes em baixo Alinhar acordes no topo
close
  Mostrar todos os acordes Esconder acordes muito fáceis Esconder acordes fáceis Esconder acordes intermediários
redimensionar
glossário