Cifras e Tablaturas
Impossibles

Impossibles

This Is Fucking Tragic

Cifras Cancelar Versão de Impressão Print

Impossibles - This Is Fucking Tragic

Tom:

  			

Verse 

E:------------------------------------------| 
B:------------------------------------------| 
G:--6-4---5-6-4---5-6-4---5-6-4---5---4(b)--| 
D:--6-4-2-5-6-4-2-5-6-4-2-5-6-4-2-5---4(b)--| 
A:--4-2-2-3-4-2-2-3-4-2-2-3-4-2-2-3---------| 
E:------0-------0-------0-------0-----------| 
   pm...... 

Chorus 

E:-----------------------------------------------| 
B:------------------------------------------2-1--| 
G:--6---6-------4-6---6-------4-6---6-------2-2--| 
D:--6-6-6-6-4-2-4-6-6-6-6-4-2-4-6-6-6-6-4-2-2-2--| 
A:--4-6-4-6-4-2-2-4-6-4-6-4-2-2-4-6-4-6-4-2-0-0--| 
E:----4---4-2-0-----4---4-2-0-----4---4-2-0------| 

Chorus Guitar 2 (add bends every once in a while) 

E:-------------| 
B:--14-12------| 
G:---------13--| 
D:--11--9------| 
A:---------11--| 
E:-------------| 

verse 2 Guitar 2 (Lots of feedback, play kinda sloppy) 

E:-----------*---------------------------| 
B:-----------*---------------------------| 
G:--6s4s9(b)-*---6s4s--4s5------------2--| 
D:-----------*-------2----(let ring)--2--| 
A:--4s2s7(b)-*---------2s3------------0--| 
E:-----------*---------------------------| 

Outro 

E:--0--------| 
B:--0--------| 
G:--1-5-2-5--| 
D:--2---2----| 
A:--2-3-0-3--| 
E:--0--------| 


Song Order 

Verse 
Chorus 
verse 2 
Chorus 
Outro x 4 
    	
fixar
fixar inscrever-se

enviado porenviado por: paulantunes
cifra enviadaCorrigida por: sem correções
logo top cifrasComente
ico música do artistaMúsicas deste artista
ico curtiuCurtiu?
ico destaqueDestaque
Petaxxon Comunicação Online

Cifras.com.br - Melhor e mais completo site de cifras e tablaturas do Brasil Mais de 1 milhão de acordes de músicas cadastradas desde 2003
As informações contidas no nosso site são colaborações de seus usuários e podem conter erros, sendo assim, não nos responsabilizamos sobre nenhuma destas.

close
menos
mais
close
Cor dos acordes:

Cor da letra:

close
Alinhar acordes a direita Alinhar acordes a esquerda Alinhar acordes em baixo Alinhar acordes no topo
close
  Mostrar todos os acordes Esconder acordes muito fáceis Esconder acordes fáceis Esconder acordes intermediários
redimensionar
glossário