Cifras e Tablaturas
In This Moment

In This Moment

A Dying Star

Cifras Cancelar Versão de Impressão
cifras

In This Moment - A Dying Star

fixar na tela  
Exibindo: vídeo-aula ver clipes redimensionar

Tom:

  
Main Theme 

e|-3--------3--------2-----|----2--------2-----------| 
B|----3--------3--------3--|-------3--------3-----3--| 
G|-------0--------0--------|-0--------0--------0-----|  repeats throughout  
D|-------------------------|-------------------------|  the song 
A|-------------------------|-------------------------| 
E|-------------------------|-------------------------| 



Chorus Rhythm 
  
   Main theme plays, 2nd guitar upstrokes these chords: 
e|-3-----------------|----------------|-0---------------|-----------------| 
B|-3-----------------|----------------|-0---------------|-----------------| 
G|-0-----------------|----rest--------|-0---------------|----rest---------| 
D|-0-----------------|----------------|-2---------------|-----------------| 
A|-x-----------------|----------------|-2---------------|-----------------| 
E|-3-----------------|----------------|-0---------------|-----------------| 

e|-------------------|----------------|-0---------------|-----------------|--3---------------| 
B|-3-----------------|----------------|-1---------------|-----------------|--3---------------| 
G|-2-----------------|----rest--------|-0---------------|----rest---------|--0---------------| 
D|-0-----------------|----------------|-2---------------|-----------------|--0---------------| 
A|-0-----------------|----------------|-3---------------|-----------------|--x---------------| 
E|-------------------|----------------|-3---------------|-----------------|--3---------------| 

  Verse starts with last chord above  



Chorus 2 

   (1:51) 
   Main theme plays, 2nd guitar upstrokes these chords: 
e|-3-----------------|----------------|-0---------------|-----------------| 
B|-3-----------------|----------------|-0---------------|-----------------| 
G|-0-----------------|----rest--------|-0---------------|----rest---------| 
D|-0-----------------|----------------|-2---------------|-----------------| 
A|-x-----------------|----------------|-2---------------|-----------------| 
E|-3-----------------|----------------|-0---------------|-----------------| 

e|-------------------|----------------|-0---------------|-----------------| 
B|-3-----------------|-3--------------|-1---------------|-3---------------| 
G|-2-----------------|-2--------------|-0---------------|-2---------------| 
D|-0-----------------|-0--------------|-2---------------|-0---------------| 
A|-0-----------------|-0--------------|-3---------------|-0---------------| 
E|-------------------|----------------|-3---------------|-----------------| 



Solo 
                                      PM PM 
e|--------------------|-------------------------|----------------------|----------------------| 
B|--------------------|-------------------------|----------------------|-------------------8~-| 
G|-7~~----------------|-/7~---------------------|----------------------|--------------7~------| 
D|----------7----5----|-----------7----5-7-7b9--|-(7b9)-----7pb9r--5---|-5-7-5---9~-----------| 
A|--------------------|-------------------------|--------------------7-|----------------------| 
E|--------------------|-------------------------|----------------------|----------------------| 

e|----------------------|------------------------|--------------------------------| 
B|-(8)--7--5--------8-8-|-8----7-8--10b12~-------|-10pb12r--8--7--8--7------------| 
G|-----------7~\--------|------------------------|----------------------9----7----| 
D|----------------------|------------------------|--------------------------------| 
A|----------------------|------------------------|--------------------------------| 
E|----------------------|------------------------|--------------------------------| 

e|-----------------------------------7-8-10--------------14-15-| 
B|--------------------7-8-10--7-8-10---------12-13-15-17-------| 
G|-------5-7-9--5-7-9------------------------------------------| 
D|-5-7-9-------------------------------------------------------| 
A|-------------------------------------------------------------| 
E|-------------------------------------------------------------| 



Bridge 

   Rhythm 
e|---------------------|-------------------|-------------------|---------------------| 
B|---------------------|-------------------|-------------------|---------------------| 
G|-2---------------4---|-5-----------5-5-0-|-------------------|-7-------------------| 
D|-2---------------4---|-5-----------5-5-0-|-5--------------5--|-7-------------------| 
A|-0---------------2---|-3-----------3-3---|-5--------------5--|-5-------------------| 
E|---------------------|-------------------|-3--------------3--|---------------------| 
 | 
 | Lead 
e|-17------15h17-15h17-|-15~---------------|-------------------|---------------------------------| 
B|---------------------|----------17-15h17-|-15~---------------|---------------------------------| 
G|---------------------|-------------------|----------14-16-12-|/14-----12---12h14------------12-| 
D|---------------------|-------------------|-------------------|-----------14------------12h14---| 
A|---------------------|-------------------|-------------------|--------------------12h14--------| 
E|---------------------|-------------------|-------------------|---------------------------------| 

   Rhythm 
e|------------------|-----------------------|-----------------------|-------------------| 
B|------------------|-----------------------|-----------------------|-------------------| 
G|-2-------------4--|-5-------------5--5--0-|-0---------------------|-7-----------------| 
D|-2-------------4--|-5-------------5--5--0-|-2---------------------|-7-----------------| 
A|-0-------------2--|-3-------------3--3----|-2---------------------|-5-----------------| 
E|------------------|-----------------------|-0---------------------|-------------------| 
 | 
 | Lead 
e|------------------|--------------------15-|-----------------------|-14~---------------| 
B|---------------12-|-13-------15b17-b17----|-15pb17r------------15-|-------------------| 
G|-----14~----14----|-----------------------|------------------14---|-------------------| 
D|-14---------------|-----------------------|--------------12-------|-------------------| 
A|------------------|-----------------------|-----------------------|-------------------| 
E|------------------|-----------------------|-----------------------|-------------------| 



Outro Chorus 

e|-3-----------------|----------------|-0---------------|-----------------| 
B|-3-----------------|----------------|-0---------------|-----------------| 
G|-0-----------------|----rest--------|-0---------------|----rest---------| 
D|-0-----------------|----------------|-2---------------|-----------------| 
A|-x-----------------|----------------|-2---------------|-----------------| 
E|-3-----------------|----------------|-0---------------|-----------------| 

e|-------------------|----------------|-0---------------|-----------------| 
B|-3-----------------|----------------|-1---------------|-3---------------| 
G|-2-----------------|----------------|-0---------------|-2---------------| 
D|-0-----------------|----------------|-2---------------|-0---------------| 
A|-0-----------------|----------------|-3---------------|-0---------------| 
E|-------------------|----------------|-3---------------|-----------------| 


 Lead part returns: 

   Rhythm  
e|-3-----------------|-----------------------|-0---------------|-----------------| 
B|-3-----------------|-----------------------|-0---------------|-----------------| 
G|-0-----------------|----rest---------------|-0---------------|----rest---------| 
D|-0-----------------|-----------------------|-2---------------|-----------------| 
A|-x-----------------|-----------------------|-2---------------|-----------------| 
E|-3-----------------|-----------------------|-0---------------|-----------------| 
 | 
 | Lead 
e|-------------------|-----------------------|-----------------|-----------------| 
B|-------------------|-----------------------|-----------------|-----------------| 
G|-7~~---------------|-/7~-------------------|-----------------|-----------------| 
D|----------7----5---|-----------7--5-7-7b9--|-(7b9)-----------|--7pb9r7--7~-----| 
A|-------------------|-----------------------|-----------------|-----------------| 
E|-------------------|-----------------------|-----------------|-----------------| 


   Rhythm 
e|-------------------|---------------------------|-0-----------------|-----------------|-0---------------| 
B|-3-----------------|---------------------------|-1-----------------|-3---------------|-0---------------| 
G|-2-----------------|---rest--------------------|-0-----------------|-2---------------|-0---------------| 
D|-0-----------------|---------------------------|-2-----------------|-0---------------|-2---------------| 
A|-0-----------------|---------------------------|-3-----------------|-0---------------|-2---------------| 
E|-------------------|---------------------------|-3-----------------|-----------------|-0---------------| 
 | 
 | Lead 
e|-------------------|---------------------------|-15~------15\14----|-----------------|-22b24-----------| 
B|-10-------10b12r---|-8-10-8~----------12-13-15-|----------------17-|-15--------------|-----------------| 
G|-------------------|-----------9-11-12---------|-------------------|-----------------|-----------------| 
D|-------------------|---------------------------|-------------------|-----------------|-----------------| 
A|-------------------|---------------------------|-------------------|-----------------|-----------------| 
E|-------------------|---------------------------|-------------------|-----------------|-----------------| 


Play Main Theme on Ending 



************************************ 

| (n) Ghost note 
| h   Hammer-on 
| p   Pull-off 
| b   Bend 
| r   Bend release 
| pb  Pre-bend 
| /   Slide up 
| \   Slide down 
| ~   Vibrato 
| PM  Palm mute 

************************************ 
  

top 5 | in this moment
top rock'n roll
Outras músicas do artista letras do(a) In This Moment
Top cifras »Top artistas »
Petaxxon Comunicação Online
Cifras.com.br - Melhor e mais completo site de cifras e tablaturas do Brasil
Mais de 1 milhão de acordes de músicas cadastradas desde 2003
As informações contidas no nosso site são colaborações de seus usuários e podem conter erros, sendo assim, não nos responsabilizamos sobre nenhuma destas.
close
menos
mais
close
Cor dos acordes:

Cor da letra:

 

save
close
close
 
redimensionar