Cifras e Tablaturas
Independent Revolution
Cifras Cancelar Versão de Impressão Print

Independent Revolution - Unnamed

Tom:

  			This tab is for an unnamed song by my band Independent Revolution, check it out. 
 
Intro 
E-------------------------------------------------------------------------------- 
B-------------------------------------------------------------------------------- 
G--------4---------------7--------------2---------------------------------------- 
D-----4-----4---------7-----7--------2-----2-------------4----------------------- 
A---2---------------5---------------0------------------4---4--------------------- 
E----------------------------------------------------2---------------------------x2 
 
 
Chorus 
E-------------------------------------------------------------------------------- 
B-------------------------------------------------------------------------------- 
G--4-4-4-4-4-4-4-4--7-7-7-7-7-7-7-7--2-2-2-2-2-2-2-2----------------------------- 
D--4-4-4-4-4-4-4-4--7-7-7-7-7-7-7-7--2-2-2-2-2-2-2-2--4-4-4-4-4-4-4-4------------ 
A--2-2-2-2-2-2-2-2--5-5-5-5-5-5-5-5--0-0-0-0-0-0-0-0--4-4-4-4-4-4-4-4------------ 
E-----------------------------------------------------2-2-2-2-2-2-2-2------------x2 
 
 
 
E-------------------------------------------------------------------------------- 
B-------------------------------------------------------------------------------- 
G--------4---------------7--------------2---------------------------------------- 
D-----4-----4---------7-----7--------2-----2-------------4----------------------- 
A---2---------------5---------------0------------------4---4--------------------- 
E----------------------------------------------------2---------------------------x2 
 
I?m working on a solo for this song, I?ll get it on as soon as I can. 
 

    	
fixar
fixar inscrever-se

enviado porenviado por: anônimo
cifra enviadaCorrigida por: sem correções
logo top cifrasComente
ico música do artistaMúsicas deste artista
ico curtiuCurtiu?
ico destaqueDestaque
Petaxxon Comunicação Online

Cifras.com.br - Melhor e mais completo site de cifras e tablaturas do Brasil Mais de 1 milhão de acordes de músicas cadastradas desde 2003
As informações contidas no nosso site são colaborações de seus usuários e podem conter erros, sendo assim, não nos responsabilizamos sobre nenhuma destas.

close
menos
mais
close
Cor dos acordes:

Cor da letra:

close
Alinhar acordes a direita Alinhar acordes a esquerda Alinhar acordes em baixo Alinhar acordes no topo
close
  Mostrar todos os acordes Esconder acordes muito fáceis Esconder acordes fáceis Esconder acordes intermediários
redimensionar
glossário