Cifras e Tablaturas
Indian Handcrafts

Indian Handcrafts

Red Action

Cifras Cancelar Versão de Impressão
cifras

Indian Handcrafts - Red Action

fixar na tela  
Exibindo: vídeo-aula ver clipes redimensionar

Tom:

  
Intro 
e|---------------------------------------------------------------------------| 
B|---------------------------------------------------------------------------| 
G|-5-------------------------------------------------------------------------| 
D|--7-5---5------------------------------------------------------------------| 
A|------7---7-6-5------------------------------------------------------------| 
D|----------------0----------------------------------------------------------| 

Verse  
Play chords 3 times in a row, then end with walk. 
e|---------------------------------------------------------------------------| 
B|---------------------------------------------------------------------------| 
G|----7----------------------------------------------------------------------| 
D|----7--x5------------------------------------------------------------------| 
A|----5-----0----------------------------------------------------------------| 
D|----0-----0-------3-4-5-4--------------------------------------------------| 

Chorus 
Play chords 3 times in a row, then end with walk. 
e|---------------------------------------------------------------------------| 
B|---------------------------------------------------------------------------| 
G|---------------------------------------------------------------------------| 
D|----5----------------------------------------------------------------------| 
A|----5-x5--0---2-3----------------------------------------------------------| 
D|----5-----0-------4-5------------------------------------------------------| 

Outro 
e|---------------------------------------------------------------------------| 
B|---------------------------------------------------------------------------| 
G|---------------------------------------------------------------------------| 
D|-----3---------------------------------------------------------------------| 
A|-------5-5-3--7-5-3-0------------------------------------------------------| 
D|--------------7-5-3-0------------------------------------------------------| 

************************************ 

Intro 
Verse x8 
Chorus x2 
Intro x3 
Verse x4 
Chorus x2 
Outro played til end 

************************************ 
  

top 5 | indian handcrafts
top rock'n roll
Outras músicas do artista letras do(a) Indian Handcrafts
Top cifras »Top artistas »
Petaxxon Comunicação Online
Cifras.com.br - Melhor e mais completo site de cifras e tablaturas do Brasil
Mais de 1 milhão de acordes de músicas cadastradas desde 2003
As informações contidas no nosso site são colaborações de seus usuários e podem conter erros, sendo assim, não nos responsabilizamos sobre nenhuma destas.
close
menos
mais
close
Cor dos acordes:

Cor da letra:

 

save
close
close
 
redimensionar