Cifras e Tablaturas
Iron And Wine

Iron And Wine

Passing Afternoon

Cifras Cancelar Versão de Impressão Print

Iron And Wine - Passing Afternoon

Tom: C

  			

Here is what I play. Remember, Drop D with a 2nd fret capo is required. 


    Cmaj7        D6                 G 
---------------------------------------------------| 
---0---0--0------------0-----0------0----0---0-----| 
---0---0------------2--------0------0----0---0-----| 
---2---2--------0---0------------------------------| 
---3---3--------0---0-----------0------2-----------| 
----------------0---0------5----------------5------| 

    Cmaj7          G              D6 
----------------------------------------------------| 
---0---0--0---0----0---0---0-----------0------------| 
---0---0------0----0---0---0--------2---------------| 
---2---2------------------------0---0---------------| 
---3---3--------0----2----------0---0---------------| 
-------------5-----------5------0---0---------------| 

    Cmaj7      Dadd9 
---------------------------------------------------| 
---0-0-0-0---3-3-3-3-------------------------------| 
---0-0-0-0---2-2-2-2------repeat entire song-------| 
---2-2-2-2---0-0-0-0-------------------------------| 
---3-3-3-3---0-0-0-0-------------------------------| 
-------------0-0-0-0-------------------------------| 
    	
fixar
fixar inscrever-se

enviado porenviado por: terr_schmitz
cifra enviadaCorrigida por: sem correções
logo top cifrasComente
ico música do artistaMúsicas deste artista
ico curtiuCurtiu?
ico destaqueDestaque
Petaxxon Comunicação Online

Cifras.com.br - Melhor e mais completo site de cifras e tablaturas do Brasil Mais de 1 milhão de acordes de músicas cadastradas desde 2003
As informações contidas no nosso site são colaborações de seus usuários e podem conter erros, sendo assim, não nos responsabilizamos sobre nenhuma destas.

close
menos
mais
close
Cor dos acordes:

Cor da letra:

close
Alinhar acordes a direita Alinhar acordes a esquerda Alinhar acordes em baixo Alinhar acordes no topo
close
  Mostrar todos os acordes Esconder acordes muito fáceis Esconder acordes fáceis Esconder acordes intermediários
redimensionar
glossário