Cifras e Tablaturas
Iron Chic

Iron Chic

My Best Friend Is A Nihlist

Cifras Cancelar Versão de Impressão

Iron Chic - My Best Friend Is A Nihlist

Tom: A

  			Intro 
Guitar 1 
  A                       A                       D                       D 
e|-0--0--0--0--0--0--0--0|-0--0--0--0--0--0--0--0|-2--2--2--2--2--2--2--2|-2--2--2--2--2--2--2--2| 
B|-2--2--2--2--2--2--2--2|-2--2--2--2--2--2--2--2|-3--3--3--3--3--3--3--3|-3--3--3--3--3--3--3--3| 
G|-2--2--2--2--2--2--2--2|-2--2--2--2--2--2--2--2|-2--2--2--2--2--2--2--2|-2--2--2--2--2--2--2--2| 
D|-2--2--2--2--2--2--2--2|-2--2--2--2--2--2--2--2|-0--0--0--0--0--0--0--0|-0--0--0--0--0--0--0--0| 
A|-0--0--0--0--0--0--0--0|-0--0--0--0--0--0--0--0|-----------------------|-----------------------| 
E|-----------------------|-----------------------|-----------------------|-----------------------| 
Guitar 2 
e|-----------------------|-----------------------|-----------------------|-----------------------| 
B|-----------------------|-----------------------|-----------------------|-----------------------| 
G|-----------------------|-----------------------|-----------------------|-----------------------| 
D|-----------------------|-----------------------|14-14-14-14-14-16-16-16|14-14-14-14-14---------| 
A|16-16-16-16-16-14-14-16|16-16-16-16-16-14-14-14|-----------------------|---------------16-16-16| 
E|-----------------------|-----------------------|-----------------------|-----------------------| 

Guitar 1 
  F#m                     F#m                     D                       D 
e|-2--2--2--2--2--2--2--2|-2--2--2--2--2--2--2--2|-2--2--2--2--2--2--2--2|-2--2--2--2--2--2--2--2| 
B|-2--2--2--2--2--2--2--2|-2--2--2--2--2--2--2--2|-3--3--3--3--3--3--3--3|-3--3--3--3--3--3--3--3| 
G|-2--2--2--2--2--2--2--2|-2--2--2--2--2--2--2--2|-2--2--2--2--2--2--2--2|-2--2--2--2--2--2--2--2| 
D|-4--4--4--4--4--4--4--4|-4--4--4--4--4--4--4--4|-0--0--0--0--0--0--0--0|-0--0--0--0--0--0--0--0| 
A|-4--4--4--4--4--4--4--4|-4--4--4--4--4--4--4--4|-----------------------|-----------------------| 
E|-2--2--2--2--2--2--2--2|-2--2--2--2--2--2--2--2|-----------------------|-----------------------| 
Guitar 2 
e|-----------------------|-----------------------|-----------------------|-----------------------| 
B|-----------------------|-----------------------|-----------------------|-----------------------| 
G|-----------------------|-----------------------|-----------------------|-----------------------| 
D|-----------------------|-----------------------|-----------------------|-----------------------| 
A|14-14-14-14-14-14-14-16|16-16-16-16-16-16-16-16|14-14-14-14-14-16-14-12|12-12-12-12-12-12-12-12| 
E|-----------------------|-----------------------|-----------------------|-----------------------| 

Guitar 1 
  F#m                     F#m                     E                       E 
e|-2--2--2--2--2--2--2--2|-2--2--2--2--2--2--2--2|-0--0--0--0--0--0--0--0|-0--0--0--0--0--0--0--0| 
B|-2--2--2--2--2--2--2--2|-2--2--2--2--2--2--2--2|-0--0--0--0--0--0--0--0|-0--0--0--0--0--0--0--0| 
G|-2--2--2--2--2--2--2--2|-2--2--2--2--2--2--2--2|-1--1--1--1--1--1--1--1|-1--1--1--1--1--1--1--1| 
D|-4--4--4--4--4--4--4--4|-4--4--4--4--4--4--4--4|-2--2--2--2--2--2--2--2|-2--2--2--2--2--2--2--2| 
A|-4--4--4--4--4--4--4--4|-4--4--4--4--4--4--4--4|-2--2--2--2--2--2--2--2|-2--2--2--2--2--2--2--2| 
E|-2--2--2--2--2--2--2--2|-2--2--2--2--2--2--2--2|-0--0--0--0--0--0--0--0|-0--0--0--0--0--0--0--0| 
Guitar 2 
e|-----------------------|-----------------------|-----------------------|-----------------------| 
B|-----------------------|-----------------------|-----------------------|-----------------------| 
G|-----------------------|-----------------------|-----------------------|-----------------------| 
D|------------------14-14|14-16-16-16-16-16-16-14|------------------14-14|14-14-14-14-14---------| 
A|14-14-14-16-16-16------|-----------------------|14-14-14-16-16-16------|---------------16-16-16| 
E|-----------------------|-----------------------|-----------------------|-----------------------| 

Guitar 1 
  D                       D                       D                       D 
e|-2--2--2--2--2--2--2--2|-2--2--2--2--2--2--2--2|-2--2--2--2--2--2--2--2|-2--2--2--2--2--2--2--2| 
B|-3--3--3--3--3--3--3--3|-3--3--3--3--3--3--3--3|-3--3--3--3--3--3--3--3|-3--3--3--3--3--3--3--3| 
G|-2--2--2--2--2--2--2--2|-2--2--2--2--2--2--2--2|-2--2--2--2--2--2--2--2|-2--2--2--2--2--2--2--2| 
D|-0--0--0--0--0--0--0--0|-0--0--0--0--0--0--0--0|-0--0--0--0--0--0--0--0|-0--0--0--0--0--0--0--0| 
A|-----------------------|-----------------------|-----------------------|-----------------------| 
E|-----------------------|-----------------------|-----------------------|-----------------------| 
Guitar 2 
e|-----------------------|-----------------------|-----------------------|-----------------------| 
B|-----------------------|-----------------------|-----------------------|-----------------------| 
G|-----------------------|-----------------------|-----------------------|-----------------------| 
D|16-16-16-14-14-14------|-----------------------|16-16-16-14-14-14------|-----------------------| 
A|------------------16-16|16-14-14-14-14-14-14-14|------------------16-16|16-14-14-14-14-14-14-14| 
E|-----------------------|-----------------------|-----------------------|-----------------------| 


Verse 
Guitar 1 
  A                       D                       E                       D 
e|-----------------------|-2--2--2--2--2--2--2--2|-0--0--0--0--0--0--0--0|-2--2--2--2--2--2--2--2| 
B|-2--2--2--2--2--2--2--2|-3--3--3--3--3--3--3--3|-0--0--0--0--0--0--0--0|-3--3--3--3--3--3--3--3| 
G|-2--2--2--2--2--2--2--2|-2--2--2--2--2--2--2--2|-1--1--1--1--1--1--1--1|-2--2--2--2--2--2--2--2| 
D|-2--2--2--2--2--2--2--2|-0--0--0--0--0--0--0--0|-2--2--2--2--2--2--2--2|-0--0--0--0--0--0--0--0| 
A|-0--0--0--0--0--0--0--0|-----------------------|-2--2--2--2--2--2--2--2|-----------------------| 
E|-----------------------|-----------------------|-0--0--0--0--0--0--0--0|-----------------------| 
Guitar 2 
e|-----------------------|-----------------------|-----------------------|-----------------------| 
B|10-10-10-10-10-10-10-10|10-10-10-10-10-10-10-10|10-10-10-10-10-10-10-10|10-10-10-10-10-10-10-10| 
G|-x--x--x--x--x--x--x--x|-x--x--x--x--x--x--x--x|-x--x--x--x--x--x--x--x|-x--x--x--x--x--x--x--x| 
D|-7--7--7--7--7--7--7--7|-7--7--7--7--7--7--7--7|-7--7--7--7--7--7--7--7|-7--7--7--7--7--7--7--7| 
A|-----------------------|-----------------------|-----------------------|-----------------------| 
E|-----------------------|-----------------------|-----------------------|-----------------------| 
  It's hard to be a human being 

Guitar 1 
  F#m                     E                       D                       D 
e|-2--2--2--2--2--2--2--2|-0--0--0--0--0--0--0--0|-2--2--2--2--2--2--2--2|-2--2--2--2--2--2--2--2| 
B|-2--2--2--2--2--2--2--2|-0--0--0--0--0--0--0--0|-3--3--3--3--3--3--3---|-3--3--3--3--3--3--3--3| 
G|-2--2--2--2--2--2--2--2|-1--1--1--1--1--1--1--1|-2--2--2--2--2--2--2--2|-2--2--2--2--2--2--2--2| 
D|-4--4--4--4--4--4--4--4|-2--2--2--2--2--2--2--2|-0--0--0--0--0--0--0--0|-0--0--0--0--0--0--0--0| 
A|-4--4--4--4--4--4--4--4|-2--2--2--2--2--2--2--2|-----------------------|-----------------------| 
E|-2--2--2--2--2--2--2--2|-0--0--0--0--0--0--0--0|-----------------------|-----------------------| 
Guitar 2 
e|-----------------------|-----------------------|-----------------------|-----------------------| 
B|10-10-10-10-10-10-10-10|10-10-10-10-10-10-10-10|10-10-10-10-10-10-10-10|10-10-10-10-10-10-10-10| 
G|-x--x--x--x--x--x--x--x|-x--x--x--x--x--x--x--x|-x--x--x--x--x--x--x--x|-x--x--x--x--x--x--x--x| 
D|-7--7--7--7--7--7--7--7|-7--7--7--7--7--7--7--7|-7--7--7--7--7--7--7--7|-7--7--7--7--7--7--7--7| 
A|-----------------------|-----------------------|-----------------------|-----------------------| 
E|-----------------------|-----------------------|-----------------------|-----------------------| 
  How can we? When we're not quite sure what being human means 

Guitar 1 
  A                       D                       E                       D 
e|-----------------------|-2--2--2--2--2--2--2--2|-0--0--0--0--0--0--0--0|-2--2--2--2--2--2--2--2| 
B|-2--2--2--2--2--2--2--2|-3--3--3--3--3--3--3--3|-0--0--0--0--0--0--0--0|-3--3--3--3--3--3--3--3| 
G|-2--2--2--2--2--2--2--2|-2--2--2--2--2--2--2--2|-1--1--1--1--1--1--1--1|-2--2--2--2--2--2--2--2| 
D|-2--2--2--2--2--2--2--2|-0--0--0--0--0--0--0--0|-2--2--2--2--2--2--2--2|-0--0--0--0--0--0--0--0| 
A|-0--0--0--0--0--0--0--0|-----------------------|-2--2--2--2--2--2--2--2|-----------------------| 
E|-----------------------|-----------------------|-0--0--0--0--0--0--0--0|-----------------------| 
Guitar 2 
e|-----------------------|-----------------------|-----------------------|-----------------------| 
B|-----------------------|-----------------------|-----------------------|-----------------------| 
G|-----------------------|-----------------------|-----------------------|-----------------------| 
D|-----------------------|------------16-14------|-----------------------|------------16-14------| 
A|14-16-16-14-16-16-14-16|16-14-16-14-------14-16|14-16-16-14-16-16-14-16|16-14-16-14-------14-16| 
E|-----------------------|-----------------------|-----------------------|-----------------------| 
  Should I let it die? 

Guitar 1 
  F#m                     E                       D                       D 
e|-2--2--2--2--2--2--2--2|-0--0--0--0--0--0--0--0|-2--2--2--2--2--2--2--2|-2--2--2--2--2--2--2--2| 
B|-2--2--2--2--2--2--2--2|-0--0--0--0--0--0--0--0|-3--3--3--3--3--3--3---|-3--3--3--3--3--3--3--3| 
G|-2--2--2--2--2--2--2--2|-1--1--1--1--1--1--1--1|-2--2--2--2--2--2--2--2|-2--2--2--2--2--2--2--2| 
D|-4--4--4--4--4--4--4--4|-2--2--2--2--2--2--2--2|-0--0--0--0--0--0--0--0|-0--0--0--0--0--0--0--0| 
A|-4--4--4--4--4--4--4--4|-2--2--2--2--2--2--2--2|-----------------------|-----------------------| 
E|-2--2--2--2--2--2--2--2|-0--0--0--0--0--0--0--0|-----------------------|-----------------------| 
Guitar 2 
e|-----------------------|-----------------------|-----------------------|-----------------------| 
B|-----------------------|-----------------------|-----------------------|-----------------------| 
G|-----------------------|-----------------------|-----------------------|-----------------------| 
D|-----------------------|------------16-14------|-----------------------|------------16-14------| 
A|14-16-16-14-16-16-14-16|16-14-16-14-------14-16|14-16-16-14-16-16-14-16|16-14-16-14-------14-16| 
E|-----------------------|-----------------------|-----------------------|-----------------------| 
  Or push those thoughts aside? They never mattered anyway 


Chorus 
Guitar 1 
  D                       A                       F#m                     D 
e|-2--2--2--2--2--2--2--2|-0--0--0--0--0--0--0--0|-2--2--2--2--2--2--2--2|-2--2--2--2--2--2--2--2| 
B|-3--3--3--3--3--3--3--3|-2--2--2--2--2--2--2--2|-2--2--2--2--2--2--2--2|-3--3--3--3--3--3--3--3| 
G|-2--2--2--2--2--2--2--2|-2--2--2--2--2--2--2--2|-2--2--2--2--2--2--2--2|-2--2--2--2--2--2--2--2| 
D|-0--0--0--0--0--0--0--0|-2--2--2--2--2--2--2--2|-4--4--4--4--4--4--4--4|-0--0--0--0--0--0--0--0| 
A|-----------------------|-0--0--0--0--0--0--0--0|-4--4--4--4--4--4--4--4|-----------------------| 
E|-----------------------|-----------------------|-2--2--2--2--2--2--2--2|-----------------------| 
Guitar 2 
e|-----------------------|-----------------------|-----------------------|-----------------------| 
B|10-10-10-10-10-10-10-10|10-10-10-10-10-10-10-10|10-10-10-10-10-10-10-10|10-10-10-10-10-10-10-10| 
G|-x--x--x--x--x--x--x--x|-x--x--x--x--x--x--x--x|-x--x--x--x--x--x--x--x|-x--x--x--x--x--x--x--x| 
D|-7--7--7--7--7--7--7--7|-7--7--7--7--7--7--7--7|-7--7--7--7--7--7--7--7|-7--7--7--7--7--7--7--7| 
A|-----------------------|-----------------------|-----------------------|-----------------------| 
E|-----------------------|-----------------------|-----------------------|-----------------------| 
  It's like driving a runaway hearse  I can't stop, I just make things worse 

Guitar 1 
  D                       A                       F#m                     D 
e|-2--2--2--2--2--2--2--2|-0--0--0--0--0--0--0--0|-2--2--2--2--2--2--2--2|-2--2--2--2--2--2--2--2| 
B|-3--3--3--3--3--3--3--3|-2--2--2--2--2--2--2--2|-2--2--2--2--2--2--2--2|-3--3--3--3--3--3--3--3| 
G|-2--2--2--2--2--2--2--2|-2--2--2--2--2--2--2--2|-2--2--2--2--2--2--2--2|-2--2--2--2--2--2--2--2| 
D|-0--0--0--0--0--0--0--0|-2--2--2--2--2--2--2--2|-4--4--4--4--4--4--4--4|-0--0--0--0--0--0--0--0| 
A|-----------------------|-0--0--0--0--0--0--0--0|-4--4--4--4--4--4--4--4|-----------------------| 
E|-----------------------|-----------------------|-2--2--2--2--2--2--2--2|-----------------------| 
Guitar 2 
e|-----------------------|-----------------------|-----------------------|-----------------------| 
B|10-10-10-10-10-10-10-10|10-10-10-10-10-10-10-10|10-10-10-10-10-10-10-10|10-10-10-10-10-10-10-10| 
G|-x--x--x--x--x--x--x--x|-x--x--x--x--x--x--x--x|-x--x--x--x--x--x--x--x|-x--x--x--x--x--x--x--x| 
D|-7--7--7--7--7--7--7--7|-7--7--7--7--7--7--7--7|-7--7--7--7--7--7--7--7|-7--7--7--7--7--7--7--7| 
A|-----------------------|-----------------------|-----------------------|-----------------------| 
E|-----------------------|-----------------------|-----------------------|-----------------------| 
  Come on and take the wheel from me put me outta my misery 

Guitar 1 
  D                       A                       F#m                     D 
e|-2--2--2--2--2--2--2--2|-0--0--0--0--0--0--0--0|-2--2--2--2--2--2--2--2|-2--2--2--2--2--2--2--2| 
B|-3--3--3--3--3--3--3--3|-2--2--2--2--2--2--2--2|-2--2--2--2--2--2--2--2|-3--3--3--3--3--3--3--3| 
G|-2--2--2--2--2--2--2--2|-2--2--2--2--2--2--2--2|-2--2--2--2--2--2--2--2|-2--2--2--2--2--2--2--2| 
D|-0--0--0--0--0--0--0--0|-2--2--2--2--2--2--2--2|-4--4--4--4--4--4--4--4|-0--0--0--0--0--0--0--0| 
A|-----------------------|-0--0--0--0--0--0--0--0|-4--4--4--4--4--4--4--4|-----------------------| 
E|-----------------------|-----------------------|-2--2--2--2--2--2--2--2|-----------------------| 
Guitar 2 
e|-----------------------|-----------------------|-----------------------|-----------------------| 
B|10-10-10-10-10-10-10-10|10-10-10-10-10-10-10-10|10-10-10-10-10-10-10-10|10-10-10-10-10-10-10-10| 
G|-x--x--x--x--x--x--x--x|-x--x--x--x--x--x--x--x|-x--x--x--x--x--x--x--x|-x--x--x--x--x--x--x--x| 
D|-7--7--7--7--7--7--7--7|-7--7--7--7--7--7--7--7|-7--7--7--7--7--7--7--7|-7--7--7--7--7--7--7--7| 
A|-----------------------|-----------------------|-----------------------|-----------------------| 
E|-----------------------|-----------------------|-----------------------|-----------------------| 
  You were crying when I sang the words I won't see you in hell If I get there first 

Guitar 1 
e|-----------------------|-----------------------|-----------------------|-----------------------| 
B|-----------------------|-----------------------|-----------------------|-----------------------| 
G|-7--7--7-----7--7--7---|-7--7--7-----7--7--7---|-7--7--7-----7--7--7---|-7--7--7--7--7--7--7--7| 
D|-7--7--7-----7--7--7---|-7--7--7-----7--7--7---|-7--7--7-----7--7--7---|-7--7--7--7--7--7--7--7| 
A|-5--5--5-----5--5--5---|-5--5--5-----5--5--5---|-5--5--5-----5--5--5---|-5--5--5--5--5--5--5--5| 
E|-----------------------|-----------------------|-----------------------|-----------------------| 
Guitar 2 
e|-----------------------|-----------------------|-----------------------|-----------------------| 
B|-----------------------|-----------------------|-----------------------|-----------------------| 
G|-----------------------|-----------------------|-----------------------|-----------------------| 
D|-----------------------|-----------------------|-----------------------|-----------------------| 
A|14-16-16----14-16-16---|14-16-16----14-16-16---|14-16-16----14-16-16---|14-16-16-16-16-16-16-16| 
E|-----------------------|-----------------------|-----------------------|-----------------------| 
  I'm tearing at the seams if anyone can dream, then I can 


Solo 
Guitar 1 
  A                       A                       D                       D 
e|-0--0--0--0--0--0--0--0|-0--0--0--0--0--0--0--0|-2--2--2--2--2--2--2--2|-2--2--2--2--2--2--2--2| 
B|-2--2--2--2--2--2--2--2|-2--2--2--2--2--2--2--2|-3--3--3--3--3--3--3--3|-3--3--3--3--3--3--3--3| 
G|-2--2--2--2--2--2--2--2|-2--2--2--2--2--2--2--2|-2--2--2--2--2--2--2--2|-2--2--2--2--2--2--2--2| 
D|-2--2--2--2--2--2--2--2|-2--2--2--2--2--2--2--2|-0--0--0--0--0--0--0--0|-0--0--0--0--0--0--0--0| 
A|-0--0--0--0--0--0--0--0|-0--0--0--0--0--0--0--0|-----------------------|-----------------------| 
E|-----------------------|-----------------------|-----------------------|-----------------------| 
Guitar 2 
e|-----------------------|-----------------------|-----------------------|-----------------------| 
B|-----------------------|-----------------------|-----------------------|-----------------------| 
G|-----------------------|-----------------------|-----------------------|-----------------------| 
D|-----------------------|-----------------------|14-14-14-14-14-16-16-14|14-14-14-14-14-14-14-14| 
A|14-16-16----16-14----16|---16-16----16-16-16-14|-----------------------|-----------------------| 
E|-----------------------|-----------------------|-----------------------|-----------------------| 

Guitar 1 
  F#m                     F#m                     D                       D 
e|-2--2--2--2--2--2--2--2|-2--2--2--2--2--2--2--2|-2--2--2--2--2--2--2--2|-2--2--2--2--2--2--2--2| 
B|-2--2--2--2--2--2--2--2|-2--2--2--2--2--2--2--2|-3--3--3--3--3--3--3--3|-3--3--3--3--3--3--3--3| 
G|-2--2--2--2--2--2--2--2|-2--2--2--2--2--2--2--2|-2--2--2--2--2--2--2--2|-2--2--2--2--2--2--2--2| 
D|-4--4--4--4--4--4--4--4|-4--4--4--4--4--4--4--4|-0--0--0--0--0--0--0--0|-0--0--0--0--0--0--0--0| 
A|-4--4--4--4--4--4--4--4|-4--4--4--4--4--4--4--4|-----------------------|-----------------------| 
E|-2--2--2--2--2--2--2--2|-2--2--2--2--2--2--2--2|-----------------------|-----------------------| 
Guitar 2 
e|-----------------------|-----------------------|-----------------------|-----------------------| 
B|-----------------------|-----------------------|-----------------------|-----------------------| 
G|-----------------------|-----------------------|-----------------------|-----------------------| 
D|-----------------------|-----------------------|14-16-16-14-14-14------|-----------------------| 
A|14-16-16-16-16-14-14-16|16-16-16-16-16-16-16-16|------------------16-16|16-16-16-16-16-16-16-16| 
E|-----------------------|-----------------------|-----------------------|-----------------------| 

Guitar 1 
  F#m                     F#m                     E                       E 
e|-2--2--2--2--2--2--2--2|-2--2--2--2--2--2--2--2|-0--0--0--0--0--0--0--0|-0--0--0--0--0--0--0--0| 
B|-2--2--2--2--2--2--2--2|-2--2--2--2--2--2--2--2|-0--0--0--0--0--0--0--0|-0--0--0--0--0--0--0--0| 
G|-2--2--2--2--2--2--2--2|-2--2--2--2--2--2--2--2|-1--1--1--1--1--1--1--1|-1--1--1--1--1--1--1--1| 
D|-4--4--4--4--4--4--4--4|-4--4--4--4--4--4--4--4|-2--2--2--2--2--2--2--2|-2--2--2--2--2--2--2--2| 
A|-4--4--4--4--4--4--4--4|-4--4--4--4--4--4--4--4|-2--2--2--2--2--2--2--2|-2--2--2--2--2--2--2--2| 
E|-2--2--2--2--2--2--2--2|-2--2--2--2--2--2--2--2|-0--0--0--0--0--0--0--0|-0--0--0--0--0--0--0--0| 
Guitar 2 
e|-----------------------|-----------------------|-----------------------|-----------------------| 
B|-----------------------|-----------------------|---------14N17N---14N--|-----------------------| 
G|-----------------------|------14----------14---|14N16N-----------------|-----------------------| 
D|------14----------14---|14-16-------14-16------|-----------------------|-----------------------| 
A|14-16-------14-16------|-----------------------|-----------------------|-----------------------| 
E|-----------------------|-----------------------|-----------------------|-----------------------| 

Guitar 1 
  D                       D                       D                       D 
e|-2--2--2--2--2--2--2--2|-2--2--2--2--2--2--2--2|-2--2--2--2--2--2--2--2|-2--2--2--2--2--2--2--2| 
B|-3--3--3--3--3--3--3--3|-3--3--3--3--3--3--3--3|-3--3--3--3--3--3--3--3|-3--3--3--3--3--3--3--3| 
G|-2--2--2--2--2--2--2--2|-2--2--2--2--2--2--2--2|-2--2--2--2--2--2--2--2|-2--2--2--2--2--2--2--2| 
D|-0--0--0--0--0--0--0--0|-0--0--0--0--0--0--0--0|-0--0--0--0--0--0--0--0|-0--0--0--0--0--0--0--0| 
A|-----------------------|-----------------------|-----------------------|-----------------------| 
E|-----------------------|-----------------------|-----------------------|-----------------------| 
Guitar 2 
Solo here not very clear in the recording, basically a run down on the F#m pentatonic scale shown below 
   14  15  16  17 
e|-o-|---|---|-o-| 
B|-o-|---|---|-o-| 
G|-o-|---|-o-|---| 
D|-o-|---|-o-|---| 
A|-o-|---|-o-|---| 
E|-o-|---|---|-o-| 

e|-17-14------------|-------------------| 
B|-------17-14------|-------------------| 
G|-------------16-14|-------------------| 
D|------------------|-16-14-------------| 
A|------------------|-------16-14-------| 
E|------------------|-------------17-14-| 


Verse 
Guitar 1 
e|-----------------------|-----------------------|-----------------------|-----------------------| 
B|-----------------------|-----------------------|-----------------------|-----------------------| 
G|-----------------------|-------------------9---|-----------------------|----------9------------| 
D|-9-11-11-----9-11-11---|-9-11-11-----9-11----11|-9-11-11-----9-11-11---|-9-11-11-----9-11----11| 
A|-----------------------|-----------------------|-----------------------|-----------------------| 
E|-----------------------|-----------------------|-----------------------|-----------------------| 
PM¦----------------------------------------------------------------------------------------------¦ 
Guitar 2 
e|-----------------------|-----------------------|-----------------------|-----------------------| 
B|10---------------------|-----------------------|-----------------------|-----------------------| 
G|-x---------------------|-----------------------|-----------------------|-----------------------| 
D|-7---------------------|-----------------------|-----------------------|-----------------------| 
A|-----------------------|-----------------------|-----------------------|-----------------------| 
E|-----------------------|-----------------------|-----------------------|-----------------------| 
  Are we alive? 

Guitar 1 
e|-----------------------|-----------------------|-----------------------|-----------------------| 
B|-----------------------|-----------------------|-----------------------|-----------------------| 
G|-----------------------|-------------------9---|-----------------------|-----------------------| 
D|-9-11-11-----9-11-11---|-9-11-11-----9-11----11|-9-11-11-----9-11-11--9|11---------------------| 
A|-----------------------|-----------------------|-----------------------|-----------------------| 
E|-----------------------|-----------------------|-----------------------|-----------------------| 
PM¦----------------------------------------------------------------------------------------------¦ 
Guitar 2 
e|-----------------------|-----------------------|-----------------------|-----------------------| 
B|-----------------------|-----------------------|-----------------------|-----------------------| 
G|-----------------------|-----------------------|-----------------------|-----------------------| 
D|-----------------------|-----------------------|-----------------------|-----------------------| 
A|-----------------------|-----------------------|-----------------------|-----------------------| 
E|-----------------------|-----------------------|-----------------------|-----------------------| 
  When the fear subsides does it even matter anyway? 


Chorus 
Guitar 1 
  D                       A                       F#m                     D 
e|-2--2--2--2--2--2--2--2|-0--0--0--0--0--0--0--0|-2--2--2--2--2--2--2--2|-2--2--2--2--2--2--2--2| 
B|-3--3--3--3--3--3--3--3|-2--2--2--2--2--2--2--2|-2--2--2--2--2--2--2--2|-3--3--3--3--3--3--3--3| 
G|-2--2--2--2--2--2--2--2|-2--2--2--2--2--2--2--2|-2--2--2--2--2--2--2--2|-2--2--2--2--2--2--2--2| 
D|-0--0--0--0--0--0--0--0|-2--2--2--2--2--2--2--2|-4--4--4--4--4--4--4--4|-0--0--0--0--0--0--0--0| 
A|-----------------------|-0--0--0--0--0--0--0--0|-4--4--4--4--4--4--4--4|-----------------------| 
E|-----------------------|-----------------------|-2--2--2--2--2--2--2--2|-----------------------| 
Guitar 2 
e|-----------------------|-----------------------|-----------------------|-----------------------| 
B|10-10-10-10-10-10-10-10|10-10-10-10-10-10-10-10|10-10-10-10-10-10-10-10|10-10-10-10-10-10-10-10| 
G|-x--x--x--x--x--x--x--x|-x--x--x--x--x--x--x--x|-x--x--x--x--x--x--x--x|-x--x--x--x--x--x--x--x| 
D|-7--7--7--7--7--7--7--7|-7--7--7--7--7--7--7--7|-7--7--7--7--7--7--7--7|-7--7--7--7--7--7--7--7| 
A|-----------------------|-----------------------|-----------------------|-----------------------| 
E|-----------------------|-----------------------|-----------------------|-----------------------| 
  It's like driving a runaway hearse  I can't stop, I just make things worse 

Guitar 1 
  D                       A                       F#m                     D 
e|-2--2--2--2--2--2--2--2|-0--0--0--0--0--0--0--0|-2--2--2--2--2--2--2--2|-2--2--2--2--2--2--2--2| 
B|-3--3--3--3--3--3--3--3|-2--2--2--2--2--2--2--2|-2--2--2--2--2--2--2--2|-3--3--3--3--3--3--3--3| 
G|-2--2--2--2--2--2--2--2|-2--2--2--2--2--2--2--2|-2--2--2--2--2--2--2--2|-2--2--2--2--2--2--2--2| 
D|-0--0--0--0--0--0--0--0|-2--2--2--2--2--2--2--2|-4--4--4--4--4--4--4--4|-0--0--0--0--0--0--0--0| 
A|-----------------------|-0--0--0--0--0--0--0--0|-4--4--4--4--4--4--4--4|-----------------------| 
E|-----------------------|-----------------------|-2--2--2--2--2--2--2--2|-----------------------| 
Guitar 2 
e|-----------------------|-----------------------|-----------------------|-----------------------| 
B|10-10-10-10-10-10-10-10|10-10-10-10-10-10-10-10|10-10-10-10-10-10-10-10|10-10-10-10-10-10-10-10| 
G|-x--x--x--x--x--x--x--x|-x--x--x--x--x--x--x--x|-x--x--x--x--x--x--x--x|-x--x--x--x--x--x--x--x| 
D|-7--7--7--7--7--7--7--7|-7--7--7--7--7--7--7--7|-7--7--7--7--7--7--7--7|-7--7--7--7--7--7--7--7| 
A|-----------------------|-----------------------|-----------------------|-----------------------| 
E|-----------------------|-----------------------|-----------------------|-----------------------| 
  Come on and take the wheel from me put me outta my misery 

Guitar 1 
  D                       A                       F#m                     D 
e|-2--2--2--2--2--2--2--2|-0--0--0--0--0--0--0--0|-2--2--2--2--2--2--2--2|-2--2--2--2--2--2--2--2| 
B|-3--3--3--3--3--3--3--3|-2--2--2--2--2--2--2--2|-2--2--2--2--2--2--2--2|-3--3--3--3--3--3--3--3| 
G|-2--2--2--2--2--2--2--2|-2--2--2--2--2--2--2--2|-2--2--2--2--2--2--2--2|-2--2--2--2--2--2--2--2| 
D|-0--0--0--0--0--0--0--0|-2--2--2--2--2--2--2--2|-4--4--4--4--4--4--4--4|-0--0--0--0--0--0--0--0| 
A|-----------------------|-0--0--0--0--0--0--0--0|-4--4--4--4--4--4--4--4|-----------------------| 
E|-----------------------|-----------------------|-2--2--2--2--2--2--2--2|-----------------------| 
Guitar 2 
e|-----------------------|-----------------------|-----------------------|-----------------------| 
B|10-10-10-10-10-10-10-10|10-10-10-10-10-10-10-10|10-10-10-10-10-10-10-10|10-10-10-10-10-10-10-10| 
G|-x--x--x--x--x--x--x--x|-x--x--x--x--x--x--x--x|-x--x--x--x--x--x--x--x|-x--x--x--x--x--x--x--x| 
D|-7--7--7--7--7--7--7--7|-7--7--7--7--7--7--7--7|-7--7--7--7--7--7--7--7|-7--7--7--7--7--7--7--7| 
A|-----------------------|-----------------------|-----------------------|-----------------------| 
E|-----------------------|-----------------------|-----------------------|-----------------------| 
  You were crying when I sang the words I won't see you in hell If I get there first 

Guitar 1 
e|-----------------------|-----------------------|-----------------------|-----------------------| 
B|-----------------------|-----------------------|-----------------------|-----------------------| 
G|-7--7--7-----7--7--7---|-7--7--7-----7--7--7---|-7--7--7-----7--7--7---|-7--7--7--7--7--7--7--7| 
D|-7--7--7-----7--7--7---|-7--7--7-----7--7--7---|-7--7--7-----7--7--7---|-7--7--7--7--7--7--7--7| 
A|-5--5--5-----5--5--5---|-5--5--5-----5--5--5---|-5--5--5-----5--5--5---|-5--5--5--5--5--5--5--5| 
E|-----------------------|-----------------------|-----------------------|-----------------------| 
Guitar 2 
e|-----------------------|-----------------------|-----------------------|-----------------------| 
B|-----------------------|-----------------------|-----------------------|-----------------------| 
G|-----------------------|-----------------------|-----------------------|-----------------------| 
D|-----------------------|-----------------------|-----------------------|-----------------------| 
A|14-16-16----14-16-16---|14-16-16----14-16-16---|14-16-16----14-16-16---|14-16-16-16-16-16-16-16| 
E|-----------------------|-----------------------|-----------------------|-----------------------| 
  I'm tearing at the seams if anyone can dream, then I can 


Bridge 
Guitar 1 - Rest 
Guitar 2 
e|-----------------------|-----------------------|-----------------------|-----------------------| 
B|-----------------------|-----------------------|-----------------------|-----------------------| 
G|-----------------------|-----------------------|-----------------------|-----------------------| 
D|-----------------------|------------------14---|-----------------------|------------------14---| 
A|14-16-16----14-16-16---|14-16-16----14-16----16|14-16-16----14-16-16---|14-16-16----14-16----16| 
E|-----------------------|-----------------------|-----------------------|-----------------------| 
PM¦----------------------------------------------------------------------------------------------¦ 

Guitar 1 - Rest 
Guitar 2 
e|-----------------------|-----------------------|-----------------------|-----------------------| 
B|-----------------------|-----------------------|-----------------------|-----------------------| 
G|-----------------------|-----------------------|-----------------------|-----------------------| 
D|-----------------------|------------------14---|-----------------------|-----------------------| 
A|14-16-16----14-16-16---|14-16-16----14-16----16|14-16-16----14-16-16---|14-14-14-14-14-12-12-12| 
E|-----------------------|-----------------------|-----------------------|-----------------------| 
PM¦----------------------------------------------------------------------------------------------¦ 

Guitar 1 - Rest 
Guitar 2 
e|-----------------------|-----------------------|-----------------------|-----------------------| 
B|-----------------------|-----------------------|-----------------------|-----------------------| 
G|-----------------------|-----------------------|-----------------------|-----------------------| 
D|------14-14------------|14-16-14---------------|------14----------14---|16-14----14------------| 
A|14-16-------16-16-14-16|---------16-16-14-14-14|14-16-------14-16------|------16----16-14-14-14| 
E|-----------------------|-----------------------|-----------------------|-----------------------| 
PM¦----------------------------------------------------------------------------------------------¦ 
  It's been a long ride feels like such a long time 

Guitar 1 - Rest 
Guitar 2 
  11 ++ 22 ++ 33 ++ 44 ++ 11 ++ 22 ++ 33 ++ 44 ++ 11 ++ 22 ++ 33 ++ 44 ++ 11 ++ 22 ++ 33 ++ 44 ++  
e|-----------------------|-----------------------|-----------------------|-----------------------| 
B|-----------------------|-----------------------|-----------------------|-----------------------| 
G|-----------------------|-----------------------|-----------------------|-----------------------| 
D|------14----------14---|------14----------14---|-----------------------|-----------------------| 
A|14-16-------14-16------|14-16-------14-16------|14-14-14-14-14-14-14-14|14-14-14-14-14-14-14-14| 
E|-----------------------|-----------------------|-----------------------|-----------------------| 
PM¦----------------------------------------------------------------------¦Gradually release 
  May as well just shut my eyes I've been asleep for half my life 

Guitar 1 
  A                       D                       E                       D 
e|-----------------------|-2--2--2--2--2--2--2--2|-0--0--0--0--0--0--0--0|-2--2--2--2--2--2--2--2| 
B|-2--2--2--2--2--2--2--2|-3--3--3--3--3--3--3--3|-0--0--0--0--0--0--0--0|-3--3--3--3--3--3--3--3| 
G|-2--2--2--2--2--2--2--2|-2--2--2--2--2--2--2--2|-1--1--1--1--1--1--1--1|-2--2--2--2--2--2--2--2| 
D|-2--2--2--2--2--2--2--2|-0--0--0--0--0--0--0--0|-2--2--2--2--2--2--2--2|-0--0--0--0--0--0--0--0| 
A|-0--0--0--0--0--0--0--0|-----------------------|-2--2--2--2--2--2--2--2|-----------------------| 
E|-----------------------|-----------------------|-0--0--0--0--0--0--0--0|-----------------------| 
Guitar 2 
e|-----------------------|-----------------------|-----------------------|-----------------------| 
B|-----------------------|-----------------------|-----------------------|-----------------------| 
G|-----------------------|-----------------------|-----------------------|-----------------------| 
D|-----------------------|------------------14---|-----------------------|------------------14---| 
A|14-16-16----14-16-16---|14-16-16----14-16----16|14-16-16----14-16-16---|14-16-16----14-16----16| 
E|-----------------------|-----------------------|-----------------------|-----------------------| 
PM¦----------------------------------------------------------------------------------------------¦ 
  But I'm awake now I make mistakes and I make em loud 

Guitar 1 
  F#m                     E                       D                       D 
e|-2--2--2--2--2--2--2--2|-0--0--0--0--0--0--0--0|-2--2--2--2--2--2--2--2|-2--2--2--2--2--2--2--2| 
B|-2--2--2--2--2--2--2--2|-0--0--0--0--0--0--0--0|-3--3--3--3--3--3--3---|-3--3--3--3--3--3--3--3| 
G|-2--2--2--2--2--2--2--2|-1--1--1--1--1--1--1--1|-2--2--2--2--2--2--2--2|-2--2--2--2--2--2--2--2| 
D|-4--4--4--4--4--4--4--4|-2--2--2--2--2--2--2--2|-0--0--0--0--0--0--0--0|-0--0--0--0--0--0--0--0| 
A|-4--4--4--4--4--4--4--4|-2--2--2--2--2--2--2--2|-----------------------|-----------------------| 
E|-2--2--2--2--2--2--2--2|-0--0--0--0--0--0--0--0|-----------------------|-----------------------| 
Guitar 2 
e|-----------------------|-----------------------|-----------------------|-----------------------| 
B|-----------------------|-----------------------|-----------------------|-----------------------| 
G|-----------------------|-----------------------|-----------------------|-----------------------| 
D|-----------------------|------------------14-16|14-14-14-14-14-14-14-14|14-14-14-14-14-14-14-14| 
A|14-16-16----14-16-16---|14-16-16----14-16------|-----------------------|-----------------------| 
E|-----------------------|-----------------------|-----------------------|-----------------------| 
  I make 'em big so they shake the ground and now I'm making up for it 


Chorus 
Guitar 1 
  D                       A                       F#m                     D 
e|-2--2--2--2--2--2--2--2|-0--0--0--0--0--0--0--0|-2--2--2--2--2--2--2--2|-2--2--2--2--2--2--2--2| 
B|-3--3--3--3--3--3--3--3|-2--2--2--2--2--2--2--2|-2--2--2--2--2--2--2--2|-3--3--3--3--3--3--3--3| 
G|-2--2--2--2--2--2--2--2|-2--2--2--2--2--2--2--2|-2--2--2--2--2--2--2--2|-2--2--2--2--2--2--2--2| 
D|-0--0--0--0--0--0--0--0|-2--2--2--2--2--2--2--2|-4--4--4--4--4--4--4--4|-0--0--0--0--0--0--0--0| 
A|-----------------------|-0--0--0--0--0--0--0--0|-4--4--4--4--4--4--4--4|-----------------------| 
E|-----------------------|-----------------------|-2--2--2--2--2--2--2--2|-----------------------| 
Guitar 2 
e|-----------------------|-----------------------|-----------------------|-----------------------| 
B|10-10-10-10-10-10-10-10|10-10-10-10-10-10-10-10|10-10-10-10-10-10-10-10|10-10-10-10-10-10-10-10| 
G|-x--x--x--x--x--x--x--x|-x--x--x--x--x--x--x--x|-x--x--x--x--x--x--x--x|-x--x--x--x--x--x--x--x| 
D|-7--7--7--7--7--7--7--7|-7--7--7--7--7--7--7--7|-7--7--7--7--7--7--7--7|-7--7--7--7--7--7--7--7| 
A|-----------------------|-----------------------|-----------------------|-----------------------| 
E|-----------------------|-----------------------|-----------------------|-----------------------| 
  It's like driving a runaway hearse  I can't stop, I just make things worse 

Guitar 1 
  D                       A                       F#m                     D 
e|-2--2--2--2--2--2--2--2|-0--0--0--0--0--0--0--0|-2--2--2--2--2--2--2--2|-2--2--2--2--2--2--2--2| 
B|-3--3--3--3--3--3--3--3|-2--2--2--2--2--2--2--2|-2--2--2--2--2--2--2--2|-3--3--3--3--3--3--3--3| 
G|-2--2--2--2--2--2--2--2|-2--2--2--2--2--2--2--2|-2--2--2--2--2--2--2--2|-2--2--2--2--2--2--2--2| 
D|-0--0--0--0--0--0--0--0|-2--2--2--2--2--2--2--2|-4--4--4--4--4--4--4--4|-0--0--0--0--0--0--0--0| 
A|-----------------------|-0--0--0--0--0--0--0--0|-4--4--4--4--4--4--4--4|-----------------------| 
E|-----------------------|-----------------------|-2--2--2--2--2--2--2--2|-----------------------| 
Guitar 2 
e|-----------------------|-----------------------|-----------------------|-----------------------| 
B|10-10-10-10-10-10-10-10|10-10-10-10-10-10-10-10|10-10-10-10-10-10-10-10|10-10-10-10-10-10-10-10| 
G|-x--x--x--x--x--x--x--x|-x--x--x--x--x--x--x--x|-x--x--x--x--x--x--x--x|-x--x--x--x--x--x--x--x| 
D|-7--7--7--7--7--7--7--7|-7--7--7--7--7--7--7--7|-7--7--7--7--7--7--7--7|-7--7--7--7--7--7--7--7| 
A|-----------------------|-----------------------|-----------------------|-----------------------| 
E|-----------------------|-----------------------|-----------------------|-----------------------| 
  Come on and take the wheel from me put me outta my misery 

Guitar 1 
  D                       A                       F#m                     D 
e|-2--2--2--2--2--2--2--2|-0--0--0--0--0--0--0--0|-2--2--2--2--2--2--2--2|-2--2--2--2--2--2--2--2| 
B|-3--3--3--3--3--3--3--3|-2--2--2--2--2--2--2--2|-2--2--2--2--2--2--2--2|-3--3--3--3--3--3--3--3| 
G|-2--2--2--2--2--2--2--2|-2--2--2--2--2--2--2--2|-2--2--2--2--2--2--2--2|-2--2--2--2--2--2--2--2| 
D|-0--0--0--0--0--0--0--0|-2--2--2--2--2--2--2--2|-4--4--4--4--4--4--4--4|-0--0--0--0--0--0--0--0| 
A|-----------------------|-0--0--0--0--0--0--0--0|-4--4--4--4--4--4--4--4|-----------------------| 
E|-----------------------|-----------------------|-2--2--2--2--2--2--2--2|-----------------------| 
Guitar 2 
e|-----------------------|-----------------------|-----------------------|-----------------------| 
B|10-10-10-10-10-10-10-10|10-10-10-10-10-10-10-10|10-10-10-10-10-10-10-10|10-10-10-10-10-10-10-10| 
G|-x--x--x--x--x--x--x--x|-x--x--x--x--x--x--x--x|-x--x--x--x--x--x--x--x|-x--x--x--x--x--x--x--x| 
D|-7--7--7--7--7--7--7--7|-7--7--7--7--7--7--7--7|-7--7--7--7--7--7--7--7|-7--7--7--7--7--7--7--7| 
A|-----------------------|-----------------------|-----------------------|-----------------------| 
E|-----------------------|-----------------------|-----------------------|-----------------------| 
  You were crying when I sang the words I won't see you in hell If I get there first 

Guitar 1 
e|-----------------------|-----------------------|-----------------------|-----------------------| 
B|-----------------------|-----------------------|-----------------------|-----------------------| 
G|-7--7--7-----7--7--7---|-7--7--7-----7--7--7---|-7--7--7-----7--7--7---|-7--7--7--7--7--7--7--7| 
D|-7--7--7-----7--7--7---|-7--7--7-----7--7--7---|-7--7--7-----7--7--7---|-7--7--7--7--7--7--7--7| 
A|-5--5--5-----5--5--5---|-5--5--5-----5--5--5---|-5--5--5-----5--5--5---|-5--5--5--5--5--5--5--5| 
E|-----------------------|-----------------------|-----------------------|-----------------------| 
Guitar 2 
e|-----------------------|-----------------------|-----------------------|-----------------------| 
B|-----------------------|-----------------------|-----------------------|-----------------------| 
G|-----------------------|-----------------------|-----------------------|-----------------------| 
D|-----------------------|-----------------------|-----------------------|-----------------------| 
A|14-16-16----14-16-16---|14-16-16----14-16-16---|14-16-16----14-16-16---|14-16-16-16-16-16-16-16| 
E|-----------------------|-----------------------|-----------------------|-----------------------| 
  I'm tearing at the seams if anyone can dream, then I can 

Guitar 1+2 
e|-5---------------------| 
B|-5---------------------| 
G|-6---------------------| 
D|-7---------------------| 
A|-7---------------------| 
E|-5---------------------| 



************************************ 
| PM  Palm mute 
| N   Tremelo picking 

************************************ 
    	
fixar
fixar inscrever-se

enviado porenviado por: terr_schmitz
cifra enviadaCorrigida por: sem correções
logo top cifrasComente
ico música do artistaMúsicas deste artista
ico curtiuCurtiu?
ico destaqueDestaque
Petaxxon Comunicação Online

Cifras.com.br - Melhor e mais completo site de cifras e tablaturas do Brasil Mais de 1 milhão de acordes de músicas cadastradas desde 2003
As informações contidas no nosso site são colaborações de seus usuários e podem conter erros, sendo assim, não nos responsabilizamos sobre nenhuma destas.

close
menos
mais
close
Cor dos acordes:

Cor da letra:

close
Alinhar acordes a direita Alinhar acordes a esquerda Alinhar acordes em baixo Alinhar acordes no topo
close
  Mostrar todos os acordes Esconder acordes muito fáceis Esconder acordes fáceis Esconder acordes intermediários
redimensionar
glossário