Cifras e Tablaturas
Iron Maiden

Iron Maiden

Seventh Son of a Seventh Son Tablatura Verificada

Ano: 1988
Album : Route 666
Compositor : (Harris)

Cifras Cancelar Versão de Impressão
cifras

Iron Maiden - Seventh Son of a Seventh Son

fixar na tela  
Exibindo: vídeo-aula ver clipes redimensionar
   

Introdução - Guitarra 1  



 e|----------------------------------------------------------|  
 B|-----5-5h6p5---5--------5-5h6p5---5-----------------------|  
 G|-5-7---------7------5-7---------7------5-7-5-5h7p5\4-5----|  
 D|----------------------------------------------------------|  
 A|----------------------------------------------------------|  
 E|----------------------------------------------------------|  


 e|----------------------------------------------------------|  
 B|----------------------------------------------------------|  
 G|-5-5-5-5-4-------2-2h4p2p0-2------------------------------|  
 D|-----------7-5--------------------------------------------|  
 A|----------------------------------------------------------|  
 E|----------------------------------------------------------|  


 e|----------------------------------------------------------|  
 B|-----5-5h6p5---5--------5-5h6p5---5-----------------------|  
 G|-5-7---------7------5-7---------7------5-7-5-5h7p5\4-5----|  
 D|----------------------------------------------------------|  
 A|----------------------------------------------------------|  
 E|----------------------------------------------------------|  


 e|----------------------------------------------------------|  
 B|----------------------------------------------------------|  
 G|-5-5-5-5-4-------2-2h4p2p0-2------------------------------|  
 D|-----------7-5--------------------------------------------|  
 A|----------------------------------------------------------|  
 E|----------------------------------------------------------|  





 Introdução - Guitarra 2  




 e|-------12-12h13p12----12-----------12-12h13p12----12------|  
 B|-13-15-------------15--------13-15-------------15---------|  
 G|----------------------------------------------------------|  
 D|----------------------------------------------------------|  
 A|----------------------------------------------------------|  
 E|----------------------------------------------------------|  



 e|----------------------------------------------------------|  
 B|13-15-13-13h15p13\12-13-13-13-13-13-12-10--10-10h12p10--10|  
 G|-----------------------------------------12-----------12--|  
 D|----------------------------------------------------------|  
 A|----------------------------------------------------------|  
 E|----------------------------------------------------------|  




 e|-------12-12h13p12----12-----------12-12h13p12----12------|  
 B|-13-15-------------15--------13-15-------------15---------|  
 G|----------------------------------------------------------|  
 D|----------------------------------------------------------|  
 A|----------------------------------------------------------|  
 E|----------------------------------------------------------|  



 e|----------------------------------------------------------|  
 B|13-15-13-13h15p13\12-13-13-13-13-13-12-10--10-10h12p10--10|  
 G|-----------------------------------------12-----------12--|  
 D|----------------------------------------------------------|  
 A|----------------------------------------------------------|  
 E|----------------------------------------------------------|  




   
 Introdução - Guitarra 3  




 e|----------------------------------------------------------|  
 B|--3--5--7--7---------3--5--7--7---------3--5--3--3--------|  
 G|--5--7--9---9--------5--7--9---9--------5--7--5---5-------|  
 D|--5--7--9----9-------5--7--9----9-------5--7--5----5------|  
 A|--3--5--7-----7------3--5--7-----7------3--5--3-----3-----|  
 E|----------------------------------------------------------|  


 e|----------------------------------------------------------|  
 B|----------------------------------------------------------|  
 G|----------------------------------------------------------|  
 D|------------------------2---------------------------------|  
 A|--3-3-3-3-2-----0h2p0---0---------------------------------|  
 E|------------5-3-------3-----------------------------------|  


 e|----------------------------------------------------------|  
 B|--3--5--7--7---------3--5--7--7---------3--5--3--3--------|  
 G|--5--7--9---9--------5--7--9---9--------5--7--5---5-------|  
 D|--5--7--9----9-------5--7--9----9-------5--7--5----5------|  
 A|--3--5--7-----7------3--5--7-----7------3--5--3-----3-----|  
 E|----------------------------------------------------------|  


 e|----------------------------------------------------------|  
 B|----------------------------------------------------------|  
 G|----------------------------------------------------------|  
 D|------------------------2---------------------------------|  
 A|--3-3-3-3-2-----0h2p0---0---------------------------------|  
 E|------------5-3-------3-----------------------------------|  






 Verso 1 e 2 - Guitarra 1   




   
 e|----------------------------------------------------------|  
 B|----------------------------------------------------------|  
 G|----------------------------------------------------------|  
 D|---------9-----------9-----------9-----------9------------|  
 A|---------7-----------7-----------7-----------7------------|  
 E|---0-0-0-0-0-0-0-0-0-0-0-0-0-0-0-0-0-0-0-0-0-0------------|  


 e|----------------------------------------------------------|  
 B|----------------------------------------------------------|  
 G|----------------------------------------------------------|  
 D|-------------9-----------9-----------9-----------9--------|  
 A|-------------7-----------7-----------7-----------7--------|  
 E|---0-0-0-0-0-0-0-0-0-0-0-0-0-0-0-0-0-0-0-0-0-0-0-0-0-0-0--|  





 Verso 1 e 2 - Guitarra 2 e 3  



   
 e|----------------------------------------------------------|  
 B|----------------------------------------------------------|  
 G|----------------------------------------------------------|  
 D|----------------------------------------------------------|  
 A|---------2-----------2-----------2-----------2------------|  
 E|---0-0-0-0-0-0-0-0-0-0-0-0-0-0-0-0-0-0-0-0-0-0------------|  


 e|----------------------------------------------------------|  
 B|----------------------------------------------------------|  
 G|----------------------------------------------------------|  
 D|----------------------------------------------------------|  
 A|-------------2-----------2-----------2-----------2--------|  
 E|---0-0-0-0-0-0-0-0-0-0-0-0-0-0-0-0-0-0-0-0-0-0-0-0-0-0-0--|  






 Clichê nº1 - Guitarra 1  



 e|----------------------------------------------------------|  
 B|----------------------------------------------------------|  
 G|-12-12-12-12-14-12-11-12--12-12-12-14-12-11-12--11h12p11-9|  
 D|----------------------------------------------------------|  
 A|----------------------------------------------------------|  
 E|----------------------------------------------------------|  


 e|----------------------------------------------------------|  
 B|----------------------------------------------------------|  
 G|-12-12-12-12-14-12-11-12--12-12-12-14-12-11-12--11h12p11-9|  
 D|----------------------------------------------------------|  
 A|----------------------------------------------------------|  
 E|----------------------------------------------------------|  






 Base do Clichê nº1 - Guitarra 2 e 3  



 e|----------------------------------------------------------|  
 B|----------------------------------------------------------|  
 G|----------------------------------------------------------|  
 D|---------4---------4---------4---------4------------------|  
 A|---2-2-2-2-2-2-2-2-2-2-2-2-2-2-2-2-2-2-2-2-2-------2------|  
 E|---------------------------------------------0-0-0-0------|  


 e|----------------------------------------------------------|  
 B|----------------------------------------------------------|  
 G|----------------------------------------------------------|  
 D|----------------------------------------------------------|  
 A|-------------2-----------2-----------2--------------------|  
 E|---0-0-0-0-0-0-0-0-0-0-0-0-0-0-0-0-0-0-0-0----------------|  


 e|----------------------------------------------------------|  
 B|----------------------------------------------------------|  
 G|----------------------------------------------------------|  
 D|---------4---------4---------4---------4------------------|  
 A|---2-2-2-2-2-2-2-2-2-2-2-2-2-2-2-2-2-2-2-2-2-------2------|  
 E|---------------------------------------------0-0-0-0------|  


 e|----------------------------------------------------------|  
 B|----------------------------------------------------------|  
 G|----------------------------------------------------------|  
 D|----------------------------------------------------------|  
 A|-------------2-----------2-----------2--------------------|  
 E|---0-0-0-0-0-0-0-0-0-0-0-0-0-0-0-0-0-0-0-0-0--------------|  






 Clichê nº2 - Guitarra 1  




 e|----------------------------------------------------------|  
 B|----------------------------------------------------------|  
 G|-----8h9p8h9p8h9p8----------------------------------------|  
 D|---9------------------------------------------------------|  
 A|----------------------------------------------------------|  
 E|----------------------------------------------------------|  





 Refrão 1 e 2 - Guitarra 1  




 e|----------------------------------------------------------|  
 B|----------------------------------------------------------|  
 G|----------------------------------------------------------|  
 D|-------------5-----------------5---7-5-4-------------5----|  
 A|---7-7-7-5-7---7-7---7-7-7-5-7---7---------7-7-7-5-7---7-7|  
 E|-0-----------------0---------------------0----------------|  


 e|----------------------------------------------------------|  
 B|----------------------------------------------------------|  
 G|----------------------------------------------------------|  
 D|---------------5-5-4---------------5-----------------5----|  
 A|---7-7-7-7-7---------5---7-7-7-5-7---7-7---7-7-7-5-7---7--|  
 E|-0-----------8---------0-----------------0----------------|  


 e|----------------------------------------------------------|  
 B|----------------------------------------------------------|  
 G|----------------------------------------------------------|  
 D|-7-5-4-------------5-------------------5-5-4-----4-5-4-5--|  
 A|---------7-7-7-5-7---7-7---7-7-7-7-7---------5-7----------|  
 E|-------0-----------------0-----------8--------------------|  


 e|----------------------------------------------------------|  
 B|----------------------------------------------------------|  
 G|----------------------------------------------------------|  
 D|-7-5-4-5p4------4-5-4-5-7-5-4------4-5-4-5-7-5-4-5p4------|  
 A|-----------7--7---------------7--7-------------------7----|  
 E|----------------------------------------------------------|  


 |----------------------------------------------------------|  
 |----------------------------------------------------------|  
 |----------------------------------------------------------|  
 |----4-5-4-5-7-5-4-----------------------------------------|  
 |--7---------------7---------------------------------------|  
 |----------------------------------------------------------|  





 Refrão 1 e 2 - Guitarra 2 e 3  





 e|----------------------------------------------------------|  
 B|----------------------------------------------------------|  
 G|----------------------------------------------------------|  
 D|-------------5-----------------5---7-5-4-------------5----|  
 A|---7-7-7-5-7---7-7---7-7-7-5-7---7---------7-7-7-5-7---7-7|  
 E|-0-----------------0---------------------0----------------|  


 e|----------------------------------------------------------|  
 B|----------------------------------------------------------|  
 G|----------------------------------------------------------|  
 D|---------------5-5-4---------------5-----------------5----|  
 A|---7-7-7-7-7---------5---7-7-7-5-7---7-7---7-7-7-5-7---7--|  
 E|-0-----------8---------0-----------------0----------------|  


 e|----------------------------------------------------------|  
 B|----------------------------------------------------------|  
 G|----------------------------------------------------------|  
 D|-7-5-4-------------5-------------------5-5-4--------------|  
 A|---------7-7-7-5-7---7-7---7-7-7-7-7---------5------------|  
 E|-------0-----------------0-----------8--------------------|  


 e|----------------------------------------------------------|  
 B|----------------------------------------------------------|  
 G|----------------------------------------------------------|  
 D|-------9-----------9-----------9-----------9-----------5--|  
 A|-------7-----------7-----------7-----------7-----3-3-3-3--|  
 E|-0-0-0-0-0-0-0-0-0-0-0-0-0-0-0-0-0-0-0-0-0-0-0-0----------|  


 e|----------------------------------------------------------|  
 B|----------------------------------------------------------|  
 G|----------------------------------------------------------|  
 D|-----------5-----------5-----------5-----------7----------|  
 A|-3-3-3-3-3-3-3-3-3-3-3-3-3-3-3-3-3-3 3-3-5-5-5-5-5-5-5-5-5|  
 E|----------------------------------------------------------|  


 e|----------------------------------------------------------|  
 B|----------------------------------------------------------|  
 G|----------------------------------------------------------|  
 D|-7-----------7-----------7-----------5-----------5--------|  
 A|-5-5-5-5-5-5-5-5-5-5-5-5-5-5-5-3-3-3-3-3-3-3-3-3-3--------|  
 E|----------------------------------------------------------|  


 e|----------------------------------------------------------|  
 B|----------------------------------------------------------|  
 G|----------------------------------------------------------|  
 D|-----------5-----------5----------------------------------|  
 A|-5-5-3-3-3-3-5-5-3-3-3-3-3-3------------------------------|  
 E|-----------------------------0----------------------------|  





 Interlúdio 1ª Parte - Guitarra 1   




 e|----------------------------------------------------------|  
 B|----------------------------------------------------------|  
 G|----------------------------------------------------------|  
 D|-----9-7-9----7-------------------------9-7-9----7--------|  
 A|-7-7-------10---9-10-7----7-10-9-10-7-7-------10---9-10-7-|  
 E|-----------------------10---------------------------------|  


 e|----------------------------------------------------------|  
 B|----------------------------------------------------------|  
 G|----------------------------------------------------------|  
 D|------------------9-7-9----7-------------------------9-7-9|  
 A|----7-10-9-10-7-7-------10---9-10-7----7-10-9-10-7-7------|  
 E|-10---------------------------------10--------------------|  


 e|----------------------------------------------------------|  
 B|----------------------------------------------------------|  
 G|----------------------------------------------------------|  
 D|----7-----------------------------------------------------|  
 A|-10---9-10-7----7-10-9-10---------------------------------|  
 E|-------------10-------------------------------------------|  






 Interlúdio 1ª Parte - Guitarra 2  





 e|-----10-8-10-7-8----7----------7----7-----10-8-10-7-8----7|  
 B|-8-8-------------10---8-7-8-10---10---8-8-------------10--|  
 G|----------------------------------------------------------|  
 D|----------------------------------------------------------|  
 A|----------------------------------------------------------|  
 E|----------------------------------------------------------|  


 e|----------7----7-----10-8-10-7-8----7----------7----7-----|  
 B|-8-7-8-10---10---8-8-------------10---8-7-8-10---10-------|  
 G|----------------------------------------------------------|  
 D|----------------------------------------------------------|  
 A|----------------------------------------------------------|  
 E|----------------------------------------------------------|  


 e|-----10-8-10-7-8----7----------7----7---------------------|  
 B|-8-8-------------10---8-7-8-10---10-----------------------|  
 G|----------------------------------------------------------|  
 D|----------------------------------------------------------|  
 A|----------------------------------------------------------|  
 E|----------------------------------------------------------|  





 Interlúdio 2ª Parte - Guitarra 1  
   



 e|----------------------------------------------------------|  
 B|----------------------------------------------------------|  
 G|----------------------------------------------------------|  
 D|----------------------------------------------------------|  
 A|---2-------2----2-------2------2-------2--------2-------2-|  
 E|-0-0-0-0-0-0----0-0-0-0-0----0-0-0-0-0-0----0-0-0-0-0-0-0-|  


 e|----------------------------------------------------------|  
 B|----------------------------------------------------------|  
 G|----------------------------------------------------------|  
 D|---5-------5----5---5-----5------5-------5----5---5-----5-|  
 A|-3-3-3-3-3-3----3-3-3-3-3-3----3-3-3-3-3-3----3-3-3-3-3-3-|  
 E|----------------------------------------------------------|  


 e|----------------------------------------------------------|  
 B|----------------------------------------------------------|  
 G|----------------------------------------------------------|  
 D|--------------------------------7-9----7-9-----7-5----7-9-|  
 A|---------------3-3-3-3 (16x)--7-5-7--7-5-7---7-5-3--7-5-7-|  
 E|-0-0-0-0-(16x)----------------5------5-------5------5-----|  





 Interlúdio 2ª Parte - Guitarra 2  




 e|----------------------------------------------------------|  
 B|----7---7---7---7-----------3---3---3---3-----------------|  
 G|--9---9---9---9---(8x)----5---5---5---5---(8x)------------|  
 D|----------------------------------------------------------|  
 A|----------------------------------------------------------|  
 E|----------------------------------------------------------|  


 e|----------------------------------------------------------|  
 B|-------12-------12-------------12-------12----------------|  
 G|-12-14----12-14----12----12-14----12-14----12-------------|  
 D|----------------------------------------------------------|  
 A|----------------------------------------------------------|  
 E|----------------------------------------------------------|  


 e|----------------------------------------------------------|  
 B|-------12-------12-------------12-------12----------------|  
 G|-12-14----12-14----12----12-14----12-14----12-------------|  
 D|----------------------------------------------------------|  
 A|----------------------------------------------------------|  
 E|----------------------------------------------------------|  


   

 Interlúdio 2ª Parte - Guitarra 3  




 e|----------------------------------------------------------|  
 B|-8-7---7-------4-3---3------------------------------------|  
 G|-----9---(8x)------5---(8x)-------------------------------|  
 D|-----------------------------2-4-5-2-4-5-2--2-4-5-2-4-5-2-|  
 A|----------------------------------------------------------|  
 E|----------------------------------------------------------|  


 e|----------------------------------------------------------|  
 B|----------------------------------------------------------|  
 G|----------------------------------------------------------|  
 D|--2-4-5-2-4-5-2---2-4-5-2-4-5-2---------------------------|  
 A|----------------------------------------------------------|  
 E|----------------------------------------------------------|  




 Solo nº1 - Guitarra 1  




 e|-------14-16----14-------14-------------------------------|  
 B|-17b19-------17----17b19----17-15-14-17-15-14h15p14----14-|  
 G|----------------------------------------------------16----|  
 D|----------------------------------------------------------|  
 A|----------------------------------------------------------|  
 E|----------------------------------------------------------|  


 e|----------------------------------------------------------|  
 B|---------------------------------------------------10-12--|  
 G|-16-14-13-16-14-13h14p13----13h14p13----13----------------|  
 D|-------------------------16----------16-------9h11--------|  
 A|----------------------------------------------------------|  
 E|----------------------------------------------------------|  


 e|-------------12-10-9h10p9---9-----------------------------|  
 B|-9h10p9--9-10-------------12-12-10-9-12-10-9--------------|  
 G|-------11------------------------------------11-9---------|  
 D|-------------------------------------------------12-11(AL)|  
 A|----------------------------------------------------------|  
 E|----------------------------------------------------------|  


 e|--------------------------------------17b19--17b19\-------|  
 B|-/14-15----14----------14-15----14-15--------17b19--/19---|  
 G|--------16----14-13-14-------16---------------------------|  
 D|----------------------------------------------------------|  
 A|----------------------------------------------------------|  
 E|----------------------------------------------------------|  


 e|----16-17--16-17-19b21--19b21-19-17-16--------------------|  
 B|-19------19----------------------------17-----------------|  
 G|-----------------------------------------16-14-13-16-14-13|  
 D|----------------------------------------------------------|  
 A|----------------------------------------------------------|  
 E|----------------------------------------------------------|  




 Base do solo 1 e 2 - Guitarra 2 e 3  



 e|----------------------------------------------------------|  
 B|----------------------------------------------------------|  
 G|----------------------------------------------------------|  
 D|-----------------------------------------------------2-2--|  
 A|-----3-----3-------3-----------------3-----3-----4-4------|  
 E|-2-2-2-2-2-2-2-2-2-2-2-2-3-3-2-0-2-2-2-2-2-2-2-2----------|  



 e|----------------------------------------------------------|  
 B|----------------------------------------------------------|  
 G|----------------------------------------------------------|  
 D|-5-5------------------------------------------------------|  
 A|-----4-2-----3-----3-------3-----------------3-----3------|  
 E|---------2-2-2-2-2-2-2-2-2-2-2-2-3-3-2-0-2-2-2-2-2-2-2-2--|  



 e|----------------------------------------------------------|  
 B|----------------------------------------------------------|  
 G|----------------------------------------------------------|  
 D|-----2-2-5-5----------------------------------------------|  
 A|-4-4---------4-2-----3-----3-------3----------------------|  
 E|-----------------2-2-2-2-2-2-2-2-2-2-2-2-3-3-2-0----------|  



 e|----------------------------------------------------------|  
 B|----------------------------------------------------------|  
 G|----------------------------------------------------------|  
 D|---------------------2-2-5-5------------------------------|  
 A|-----3-----3-----4-4---------4-2-----3-----3-------3------|  
 E|-2-2-2-2-2-2-2-2-----------------2-2-2-2-2-2-2-2-2-2-2-2--|  



 e|----------------------------------------------------------|  
 B|----------------------------------------------------------|  
 G|----------------------------------------------------------|  
 D|-----------------------------2-2-5-5----------------------|  
 A|-------------3-----3-----4-4---------4-4------------------|  
 E|-3-3-2-0-2-2-2-2-2-2-2-2----------------------------------|  





 Clichê nº3 - Guitarra 1  



 e|----------------------------------------------------------|  
 B|-14-14-14p12p10-------14-14-14p12p10----10h12h14----------|  
 G|----------------12-------------------12-------------------|  
 D|----------------------------------------------------------|  
 A|----------------------------------------------------------|  
 E|----------------------------------------------------------|  



 e|----------------------------------------------------------|  
 B|-14-14-14p12p10-------14-14-14p12p10----10h12h14----------|  
 G|----------------12-------------------12-------------------|  
 D|----------------------------------------------------------|  
 A|----------------------------------------------------------|  
 E|----------------------------------------------------------|  



 e|----------------------------------------------------------|  
 B|-14-14-14p12p10-------14-14-14p12p10----10h12h14----------|  
 G|----------------12-------------------12-------------------|  
 D|----------------------------------------------------------|  
 A|----------------------------------------------------------|  
 E|----------------------------------------------------------|  



 e|----------------------------------------------------------|  
 B|-14-14-14p12p10-------14-14-14p12p10----10h12h14----------|  
 G|----------------12-------------------12-------------------|  
 D|----------------------------------------------------------|  
 A|----------------------------------------------------------|  
 E|----------------------------------------------------------|  





 Clichê nº3 - Guitarra 2 e 3  



 e|----------------------------------------------------------|  
 B|----------------------------------------------------------|  
 G|----------------------------------------------------------|  
 D|-4-4-4p2p0------4-4-4p2p0---0h2h4---4-4-4p2p0-------------|  
 A|-----------3--------------3-------------------3-----------|  
 E|----------------------------------------------------------|  



 e|----------------------------------------------------------|  
 B|----------------------------------------------------------|  
 G|----------------------------------------------------------|  
 D|-4-4-4p2p0---0h2h4---4-4-4p2p0-----4-4-4p2p0---0h2h4------|  
 A|-----------3-------------------3-------------3------------|  
 E|----------------------------------------------------------|  



 e|----------------------------------------------------------|  
 B|----------------------------------------------------------|  
 G|----------------------------------------------------------|  
 D|-4-4-4p2p0------4-4-4p2p0---0h2h4-------------------------|  
 A|-----------3--------------3-------------------------------|  
 E|----------------------------------------------------------|  




 Solo nº2 - Guitarra 1  




 e|----------------------------------------------------------|  
 B|-19t14-19t14-19t14-19t14-19t15-19t15-19t15-19t15-19t12----|  
 G|----------------------------------------------------------|  
 D|----------------------------------------------------------|  
 A|----------------------------------------------------------|  
 E|----------------------------------------------------------|  



 e|----------------------------------------------------------|  
 B|-19t12-19t12-19t12-19t14-19t14-19t14-19t14-19t10-19t10----|  
 G|----------------------------------------------------------|  
 D|----------------------------------------------------------|  
 A|----------------------------------------------------------|  
 E|----------------------------------------------------------|  



 e|----------------------------------------------------------|  
 B|-19t12-19t12-19t9-19t9-19t10-9h10p9--------------------14-|  
 G|------------------------------------11-9-------13-14-16---|  
 D|-----------------------------------------11-16------------|  
 A|----------------------------------------------------------|  
 E|----------------------------------------------------------|  



 e|-------------16--17-16-14----------14-16-17-19b21---------|  
 B|-15----14-15--------------15----15------------------------|  
 G|----16-----------------------16---------------------------|  
 D|----------------------------------------------------------|  
 A|----------------------------------------------------------|  
 E|----------------------------------------------------------|  




 Clichê nº4 - Guitarras 1,2 e 3  




 e|----------------------------------------------------------|  
 B|----------------------------------------------------------|  
 G|-6-6-6------------------4-------6-6-6---------------------|  
 D|-------7-6-7-7--4-4-6-7---7-6-4-------7-6-7-7-4-4-6-7-----|  
 A|------------------------------------------------------4-4-|  
 E|----------------------------------------------------------|  



 e|----------------------------------------------------------|  
 B|----------------------------------------------------------|  
 G|----6-6-6------------------4-------6-6-6------------------|  
 D|--4-------7-6-7-7--4-4-6-7---7-6-4-------7-6-7-7-4-4-6-7--|  
 A|7--------------------------------------------------------4|  
 E|----------------------------------------------------------|  





 Solo nº3 - Guitarra 1  




 e|------------------------------9---------------------------|  
 B|---------------(AL)7HA--12b14---9-12-----9---------11----9|  
 G|-6(AL)--9(AL)--(AL)7HA---------------11b---12-11-9----11--|  
 D|-6(AL)--9(AL)---------------------------------------------|  
 A|-4(AL)--7(AL)---------------------------------------------|  
 E|----------------------------------------------------------|  



 e|------------------------------------/21-18h21p18----------|  
 B|----9--------------------------------------------20-------|  
 G|------9---------------------------------------------------|  
 D|-12-----11------------------------------------------------|  
 A|-----------10---------------------------------------------|  
 E|----------------------------------------------------------|  



 e|-15h18p15----12h15p12----9h12p9----9h12p9----9------------|  
 B|----------17----------14--------12--------12---9h12p9-----|  
 G|------------------------------------------------------12--|  
 D|----------------------------------------------------------|  
 A|----------------------------------------------------------|  
 E|----------------------------------------------------------|  



 e|----------------------------------------------------------|  
 B|9h12p9----9----9-------------9-------------9-------------9|  
 G|-------12---12---11-9-8-9-11---11-9-8-9-11---11-9-8-9-11--|  
 D|----------------------------------------------------------|  
 A|----------------------------------------------------------|  
 E|----------------------------------------------------------|  



 e|-------------------------------11b13----------------------|  
 B|-----------------------11-9h10----------------------------|  
 G|---------------11-9h10------------------------------------|  
 D|-------11---10--------------------------------------------|  
 A|----10----9-----------------------------------------------|  
 E|--9-------------------------------------------------------|  





 Base do solo nº3 - Guitarras 2 e 3  



 e|----------------------------------------------------------|  
 B|----------------------------------------------------------|  
 G|----------------------------------------------------------|  
 D|-----6-----6-------6-----------------6-----6--------------|  
 A|-4-4-4-4-4-4-4-4-4-4-4-4-5-5-4---4-4-4-4-4-4-4-4----------|  
 E|-------------------------------7-----------------4-4-7-7--|  



 e|----------------------------------------------------------|  
 B|----------------------------------------------------------|  
 G|----------------------------------------------------------|  
 D|-------------6-----6-------6-----------------6-----6------|  
 A|-5-5-4---4-4-4-4-4-4-4-4-4-4-4-4-5-5-4---4-4-4-4-4-4-4-4--|  
 E|-------7-------------------------------7------------------|  



 e|----------------------------------------------------------|  
 B|----------------------------------------------------------|  
 G|----------------------------------------------------------|  
 D|---------------------6-----6-------6----------------------|  
 A|---------5-5-4---4-4-4-4-4-4-4-4-4-4-4-4-5-5-4------------|  
 E|-4-4-7-7-------7-------------------------------7----------|  



 e|----------------------------------------------------------|  
 B|----------------------------------------------------------|  
 G|----------------------------------------------------------|  
 D|-----6-----6-------------------------6-----6-------6------|  
 A|-4-4-4-4-4-4-4-4---------5-5-4---4-4-4-4-4-4-4-4-4-4-4-4--|  
 E|-----------------4-4-7-7-------7--------------------------|  



 e|----------------------------------------------------------|  
 B|----------------------------------------------------------|  
 G|----------------------------------------------------------|  
 D|-------------6-----6--------------------------------------|  
 A|-5-5-4---4-4-4-4-4-4-4-4---------5-5-4--------------------|  
 E|-------7-----------------4-4-7-7-------7------------------|  






 Solo nº4 - Guitarra 1  



 e|----------------------------------------------------------|  
 B|-19b21r19b21r19-21r19b21r19-21r19b21----------------------|  
 G|-----------------------------------------9-11-9h11p9----9\|  
 D|---------------------------------------11------------11---|  
 A|-------------------------------------11-------------------|  
 E|----------------------------------------------------------|  



 e|----------------------------15p12----16p12----15p12-------|  
 B|-------------------------14-------14-------14-------14----|  
 G|----------------------------------------------------------|  
 D|-----------------6-8-9-6----------------------------------|  
 A|-7-6h7p6---6-7-9------------------------------------------|  
 E|---------9------------------------------------------------|  



 e|-16p12----17b19-------------------------------------------|  
 B|-------14-------------------------------------------------|  
 G|----------------------------------------------------------|  
 D|----------------------------------------------------------|  
 A|----------------------------------------------------------|  
 E|----------------------------------------------------------|  





 Clichê nº 5 - Guitarras 1,2 e 3  



 e|----------------------------------------------------------|  
 B|----------------------------------------------------------|  
 G|----------------------------------------------------------|  
 D|-12--11---------------------12--11--9--7--9--11--12--11---|  
 A|-10--9--9-9-9-9-9-9-9-9-9-9-10--9---7--5--7--9---10--9----|  
 E|----------------------------------------------------------|  



 e|----------------------------------------------------------|  
 B|----------------------------------------------------------|  
 G|----------------------------------------------------------|  
 D|---------------------12--11----------------------12--11---|  
 A|-9-9-9-9-9-9-9-9-9-9-10--9--9-9-9-9-9-9-9-9-9-9--10--9----|  
 E|----------------------------------------------------------|  



 e|----------------------------------------------------------|  
 B|----------------------------------------------------------|  
 G|----------------------------------------------------------|  
 D|-6--9--11--12--11-----------------------------------------|  
 A|-4--7--9---10--9--9-9-9-9-9-9-9-9-9-9---------------------|  
 E|----------------------------------------------------------|  






 Clichê nº 6 - Guitarra 1  



 e|----------------------------------------------------------|  
 B|-12-14-10-12-9-10-12-14-10-12-9-10-12-14-10-12------------|  
 G|-----------------------------------------------9-9-11-----|  
 D|----------------------------------------------------------|  
 A|----------------------------------------------------------|  
 E|----------------------------------------------------------|  



 e|----------------------------------------------------------|  
 B|-12-14-10-12-9-10-12-14-10-12-9-10-12-14-10-12---10-------|  
 G|-----------------------------------------------9----11----|  
 D|----------------------------------------------------------|  
 A|----------------------------------------------------------|  
 E|----------------------------------------------------------|  



 e|----------------------------------------------------------|  
 B|-12-12-12-12-14-10-12-9-10----9---------------------------|  
 G|---------------------------11---9-11----9-----------------|  
 D|-------------------------------------12---11-12-9-11-9----|  
 A|----------------------------------------------------------|  
 E|----------------------------------------------------------|  



 e|----------------------------------------------------------|  
 B|-12-12-12-12-14-10-12-9-10----9------------------10-------|  
 G|---------------------------11---9h11p9-------9-9----9-11--|  
 D|---------------------------------------12-11--------------|  
 A|----------------------------------------------------------|  
 E|----------------------------------------------------------|  



 e|----------------------------------------------------------|  
 B|-12-12-12-12-14-10-12-9-10----9---------------------------|  
 G|---------------------------11---9-11----9-----------------|  
 D|-------------------------------------12---11-12-9-11-9----|  
 A|----------------------------------------------------------|  
 E|----------------------------------------------------------|  



 e|----------------------------------------------------------|  
 B|-12-12-12-12-14-10-12-9-10----9------------------10-------|  
 G|---------------------------11---9h11p9-------9-9----9-11--|  
 D|---------------------------------------12-11--------------|  
 A|----------------------------------------------------------|  
 E|----------------------------------------------------------|  



 e|-------------------------------------------12-------------|  
 B|-14-12-10-12-10-9-10-9----9------9------------15-14-15-14-|  
 G|-----------------------11---11-9---11-9-------------------|  
 D|----------------------------------------12----------------|  
 A|----------------------------------------------------------|  
 E|----------------------------------------------------------|  



 e|----------------------------------------------------------|  
 B|-12-14-12----12-------12-----------14-12-10-12-10-9-10-9--|  
 G|----------14----14-13----14-13-11-------------------------|  
 D|----------------------------------------------------------|  
 A|----------------------------------------------------------|  
 E|----------------------------------------------------------|  



 e|---------------------12-----------------------------------|  
 B|----9------9------------15-14-15-14-12-14-12----12--------|  
 G|-11---11-9---11-9----------------------------14----14-13--|  
 D|------------------12--------------------------------------|  
 A|----------------------------------------------------------|  
 E|----------------------------------------------------------|  



 e|----------------------------------------------------------|  
 B|-17-17-17-17-17-14-15-17-17-17-17-15-14-17-17-17-17-17----|  
 G|----------------------------------------------------------|  
 D|----------------------------------------------------------|  
 A|----------------------------------------------------------|  
 E|----------------------------------------------------------|  



 e|----------------------------------------------------------|  
 B|-14-15-17-15-14-------------------------------------------|  
 G|----------------14----------------------------------------|  
 D|----------------------------------------------------------|  
 A|----------------------------------------------------------|  
 E|----------------------------------------------------------|  




 Clichê nº 6 - Guitarra 2  




 e|----------------------------------------------------------|  
 B|----------------------------------------------------------|  
 G|----------------------------------------------------------|  
 D|--6-7-4-6-2-4-6-7-4-6-2-4-6-7-4-6-2-2-4---6-7-4-6-2-4-6-7-|  
 A|----------------------------------------------------------|  
 E|----------------------------------------------------------|  



 e|----------------------------------------------------------|  
 B|-----------------------9-9-9-9-10----9--------------------|  
 G|----------------------------------11---9-11----9----------|  
 D|-4-6-2-4-6-7-4-6-2-2-4----------------------12---11-12-9--|  
 A|----------------------------------------------------------|  
 E|----------------------------------------------------------|  



 e|----------------------------------------------------------|  
 B|------------------9-9-9-9-10----9-------------------------|  
 G|-----------------------------11---9-11----9---------------|  
 D|-11----9-------------------------------12---11h12p11------|  
 A|----12---11-12-11------------------------------------14-12|  
 E|----------------------------------------------------------|  



 e|----------------------------------------------------------|  
 B|----------------9-9-9-9-10----9---------------------------|  
 G|-------11------------------11---9-11----9-----------------|  
 D|-11-11----11-11----------------------12---11-12-9-11----9-|  
 A|-----------------------------------------------------12---|  
 E|----------------------------------------------------------|  



 e|----------------------------------------------------------|  
 B|----------9-9-9-9-10----9---------------------------------|  
 G|---------------------11---9-11----9-----------------------|  
 D|-------------------------------12---11h12p11-------11-11--|  
 A|-11-12-11------------------------------------14-12--------|  
 E|----------------------------------------------------------|  



 e|----------------------------------------------------------|  
 B|----------------------------------------------------------|  
 G|----------------------------------------------------------|  
 D|-11--------6--7--4--6--2--4--7--6--7--4--6--2--2--4-------|  
 A|----11-11--4--5--2--4--0--2--5--4--5--2--4--2--2--4-------|  
 E|----------------------------------------------------------|  



 e|----------------------------------------------------------|  
 B|----------------------------------------14-14-14-14-14----|  
 G|----------------------------------------------------------|  
 D|-6--7--4--6--------7--6--7--4--6--------------------------|  
 A|-4--5--2--4--2--2--5--4--5--2--4--2--2--------------------|  
 E|-------------0--0-----------------0--0--------------------|  




 e|----------------------------------------------------------|  
 B|----12-14-14-14-14-12----14-14-14-14-14----12-14-12-------|  
 G|-14-------------------14----------------14----------14-11-|  
 D|----------------------------------------------------------|  
 A|----------------------------------------------------------|  
 E|----------------------------------------------------------|  





 Clichê nº 6 - Guitarra 3  



 e|----------------------------------------------------------|  
 B|----------------------------------------------------------|  
 G|----------------------------------------------------------|  
 D|----------------------------------------------------------|  
 A|-7--9--5--7--4--5--7--9--5--7--4--5--7--9--5--7--2--2--4--|  
 E|----------------------------------------------------------|  



 e|----------------------------------------------------------|  
 B|----------------------------------------------------------|  
 G|----------------------------------------------------------|  
 D|----------------------------------------------------------|  
 A|-7--9--5--7--4--5--7--9--5--7--4--5--7--9--5--7--2--2--4--|  
 E|----------------------------------------------------------|  



 e|----------------------------------------------------------|  
 B|----------------------------------------------------------|  
 G|----------------------------------------------------------|  
 D|----7--4--------7--4--11--6--7--4--6--2--4--7--6--7--4--6-|  
 A|-4--5--2--4--4--5--2--9---4--5--2--4--0--2--5--4--5--2--4-|  
 E|-2--------2--2--------------------------------------------|  



 e|----------------------------------------------------------|  
 B|----------------------------------------------------------|  
 G|----------------------------------------------------------|  
 D|----------6--7--4--6--------7--6--7--4--6-----------------|  
 A|-2--2--4--4--5--2--4--2--2--5--4--5--2--4--2--2-----------|  
 E|-0--0--2--------------0--0-----------------0--0-----------|  



 e|----------------------------------------------------------|  
 B|----------------------------------------------------------|  
 G|----------------------------------------------------------|  
 D|-11-11-11-11-11--------11-11-11-11-11--------11-11-11-----|  
 A|-9--9--9--9--9---------9--9--9--9--9---------9--9--9------|  
 E|----------------------------------------------------------|  




 e|----------------------------------------------------------|  
 B|----------------------------------------------------------|  
 G|----------------------------------------------------------|  
 D|-11-11-11-11-11--------11-11-11-11-11--------11-----------|  
 A|-9--9--9--9--9---------9--9--9--9--9---------9------------|  
 E|----------------------------------------------------------|  





  

top 5 | iron maiden
top heavy metal
Outras músicas do artista letras do(a) Iron Maiden
Top cifras »Top artistas »
Petaxxon Comunicação Online
Cifras.com.br - Melhor e mais completo site de cifras e tablaturas do Brasil
Mais de 1 milhão de acordes de músicas cadastradas desde 2003
As informações contidas no nosso site são colaborações de seus usuários e podem conter erros, sendo assim, não nos responsabilizamos sobre nenhuma destas.
close
menos
mais
close
Cor dos acordes:

Cor da letra:

 

save
close
close
 
redimensionar