Cifras e Tablaturas
IV Of Spades

IV Of Spades

Hey Barbara

Cifras Cancelar Versão de Impressão

IV Of Spades - Hey Barbara

Tom:

  			
Intro 

A|---------------------------|   |--11-11-11-11-xxxx-11-11-11-11-xxxx-11-11-11-11-xxxx--11--11--11--| 
B|-7/8-8---------------------|   |--8--8--8--8--xxxx-8--8--8--8--xxxx-8--8--8--8--xxxx--8---8---8---| 
G|-7/8-8--10-8---------------|8x |--8--8--8--8--xxxx-8--8--8--8--xxxx-8--8--8--8--xxxx--8---8---8---| 2x 
e|------------10-8h10--------|   |--8--8--8--8--xxxx-8--8--8--8--xxxx-8--8--8--8--xxxx--8---8---8---| 
A|---------------------------|   |------------------------------------------------------------------| 
E|---------------------------|   |------------------------------------------------------------------| 


Verse 

e|-------------------------------------------------------------------------------| 
B|-------------------------------------------------------------------------------| 
G|-----------------------10p8---------------------------------------10p8---------| 2x 
D|-------8-10-----------------10-8/10---------------8-10-----------------10-8----| 
A|--8h10---------------------------------------8h10------------------------------| 
E|-------------------------------------------------------------------------------| 

Pre-Chorus 

e|---------------------| 
B|---------------------| 
G|---------------------| 8x 
D|-8-8-8-7-7-7-7p5-----| 
A|----------------6----| 
E|---------------------| 
   . . . . . . . .                   

Chorus 

e|-----------|   |---------------------| 
B|-----------|   |---------------------| 
G|-----------|6x |--10/12-xx-8---------|  (REPEAT 2x) 
D|------8-xx-|   |------------10-8h10--| 
A|-8h10---xx-|   |---------------------| 
E|-----------|   |---------------------| 
   .  . . 

Verse2 

e|-------------| |------------------------------| |------------------------------------| 
B|---7/8--7/8--| |--11------10b11-8-------------| |------------------------------------| 
G|---7-8--7/8--| |--x---------------10-8--------| |-------------------------10p8-------| 
D|-------------| |--8--------------------10-----| |------8-10--------------------10-8--| 
A|-------------| |------------------------------| |--8h10------------------------------| 
E|-------------| |------------------------------| |------------------------------------| 


Pre-Chorus 

e|---------------------| 
B|---------------------| 
G|---------------------| 8x 
D|-8-8-8-7-7-7-7p5-----| 
A|----------------6----| 
E|---------------------| 
   . . . . . . . .                   

Chorus 

e|-----------|   |---------------------| 
B|-----------|   |---------------------| 
G|-----------|6x |--10/12-xx-8---------|  (REPEAT 2x) 
D|------8-xx-|   |------------10-8h10--| 
A|-8h10---xx-|   |---------------------| 
E|-----------|   |---------------------| 
   .  . . 

Instrumental 
(hey I don't care) 

e|------------------------|  
B|------------------------| 
G|------------------------| 23x 
D|-------8h10-7--7-7-7h8--| 
A|--8-10------------------| 
E|------------------------| 

e|------------| 
B|-13/11------| 
G|-x-/x-------| 
D|-10/8-------| 
A|------10/8--| 
E|------------| 

Chorus 

e|-----------|   |---------------------| 
B|-----------|   |---------------------| 
G|-----------|6x |--10/12-xx-8---------|   
D|------8-xx-|   |------------10-8h10--| 
A|-8h10---xx-|   |---------------------| 
E|-----------|   |---------------------| 
   .  . . 

e|--7/8-xx-7/8-xx-7/8-xx-8-8--|   |-7/8-xx-7/8-xx-7/8-xx---------------| 
B|--7/8-xx-7/8-xx-7/8-xx-8-8--|   |-7/8-xx-7/8-xx-7/8-xx---------------| 
G|----------------------------|   |----------------------10-8----------| 
D|----------------------------|   |---------------------------10-8h10--| 
A|----------------------------|   |------------------------------------| 
E|----------------------------|   |------------------------------------| 


e|-----------|    
B|-----------|    
G|-----------| 16x   
D|------8-xx-|    
A|-8h10---xx-|    
E|-----------|    
   .  . . 

Outro 

e|--------------------|   |---------------| 
B|--7/8-8-------------|   |--7/8-8--------| 
G|--7/8-8-10-8--------|3x |--7/8-8-10-8---| 
D|------------10-8/10-|   |---------------| 
E|--------------------|   |---------------| 
E|--------------------|   |---------------| 



************************************ 

| x  Dead note 
| /  Slide up 
| h  Hammer-on 
| p  Pull-off 
| .  Staccato 
| b  Bend 
  

************************************ 
    	
fixar
fixar inscrever-se

enviado porenviado por: lucicamargo
cifra enviadaCorrigida por: sem correções
logo top cifrasComente
ico música do artistaMúsicas deste artista
ico curtiuCurtiu?
ico destaqueDestaque
Petaxxon Comunicação Online

Cifras.com.br - Melhor e mais completo site de cifras e tablaturas do Brasil Mais de 1 milhão de acordes de músicas cadastradas desde 2003
As informações contidas no nosso site são colaborações de seus usuários e podem conter erros, sendo assim, não nos responsabilizamos sobre nenhuma destas.

close
menos
mais
close
Cor dos acordes:

Cor da letra:

close
Alinhar acordes a direita Alinhar acordes a esquerda Alinhar acordes em baixo Alinhar acordes no topo
close
  Mostrar todos os acordes Esconder acordes muito fáceis Esconder acordes fáceis Esconder acordes intermediários
redimensionar
glossário