Cifras e Tablaturas
Janus

Janus

Promise To No One

Cifras Cancelar Versão de Impressão
cifras

Janus - Promise To No One

fixar na tela  
Exibindo: vídeo-aula ver clipes redimensionar
  
INTRO 0:00 

C |-----------------------------------------------------------------------| 
G#|-----------------------------------------------------------------------| 
D#|----------4----------------4-------------------4----------------4------| 
A#|---------------3------------------------------------3----------------5-| 
F |-2-0--2h3-2--0-3--2-0--2h3-2----------2-0--2h3-2--0-3--2-0--2h3-2--0-5-| 
A#|-2-0--2h3----0-3--2-0--2h3----0-0000--2-0--2h3----0-3--2-0--2h3----0-5-| 
                                   **** 

C |----------------------------------------------------------------| 
G#|----------------------------------------------------------------| 
D#|----------4----------------4-------------------4----------------| 
A#|---------------3------------------------------------3-----------| 
F |-2-0--2h3-2--0-3--2-0--2h3-2----------2-0--2h3-2--0-3--2-0--2h3-| 
A#|-2-0--2h3----0-3--2-0--2h3----0-0000--2-0--2h3----0-3--2-0--2h3-| 
                                   **** 

verse 1 0:18 
                               x2 
C |-------------------------------| |----------------------------| |---------------------0?------|  
G#|-------------------------------| |----------------------------| |---------------------9?------|  
D#|-------------------------------| |----------------------------| |---------------------7?------| 
A#|-5-5-5----7-7-7-0-0-0----9-9-7-| |-5-5-5----7-7-7-9-9-9----0?-| |-5-5-5----7-7-7-0-0-0----7-7-|  
F |-2-2-2----5-5-5-9-0-0----7-7-7-| |-2-2-2----5-5-5-7-7-7----0?-| |-2-2-2----5-5-5-0-0-0----7-7-|  
A#|-2-2-2----5-5-5-0-0-0----7-7-7-| |-2-2-2----5-5-5-7-7-7----0?-| |-2-2-2----5-5-5-0-0-0----7-7-| 

Chorus 1 0:48 

Follow the rhythm of the kick drum. (T=10) 

C |------------------------------------------------------| 
G#|------------------------------------------------------| 
D#|------------------------------------------------------| 
A#|------------------------------------------------------| 
F |------------------------------------------------------| 
A#|-2-2-222-22--2-2-222-22222--5-5-555-55--5-5-555-55555-| 

C |----------------------------------------------------| 
G#|----------------------------------------------------| 
D#|----------------------------------------------------| 
A#|----------------------------------------------------| 
F |----------------------------------------------------| 
A#|-T-T-TTT-TT--T-T-TTT-TTTTT--7-7-777-77--7-7-7777770-| 

C |------------------------------------------------------| 
G#|------------------------------------------------------| 
D#|------------------------------------------------------| 
A#|------------------------------------------------------| 
F |------------------------------------------------------| 
A#|-2-2-222-22--2-2-222-22222--5-5-555-55--5-5-555-55555-| 

C |----------------------------------------------------| 
G#|----------------------------------------------------| 
D#|----------------------------------------------------| 
A#|----------------------------------------------------| 
F |----------------------------------------------------| 
A#|-7-7-777-77--7-7-777-77777--T-T-TTT-TT--T-T-TTTTTT0-| 

verse 2 1:21 

2nd Guitar part starting at 1:36. 

C |--------------------------------------------------------------------| 
G#|-11-11-11-11-11-11-11-11-11--14-14-14--16-16-16-16-16-16-16\--9-9-9-| 
D#|-x--x--x--x--x--x--x--x--x---x--x--x---x--x--x--x--x--x--x----x-x-x-| 
A#|-9--9--9--9--9--9--9--9--9---12-12-12--14-14-14-14-14-14-14\--7-7-7-| 
F |--------------------------------------------------------------------| 
A#|--------------------------------------------------------------------| 


C |-----------------------------------------------------------| 
G#|-11-11-11-11-11-11-11-11-11--14-14-14--9-9-9-9?---16-16-16\| 
D#|-x--x--x--x--x--x--x--x--x---x--x--x---x-x-x-x----x--x--x--| 
A#|-9--9--9--9--9--9--9--9--9---12-12-12--7-7-7-7?---14-14-14\| 
F |-----------------------------------------------------------| 
A#|-----------------------------------------------------------| 

Chorus 2 1:51 

2nd Guitar ... Listen closely for this part. It's played in the same 
rhythm as the main guitar part, and again, with the kick drum. 

C |-----------------------------------------------------------| 
G#|-11--11--11-11-11--11-11--11--11--11-11-11--11-11-11-11-11-| 
D#|-x---x---x--x--x---x--x---x---x---x--x--x---x--x--x--x--x--| 
A#|-9---9---9--9--9---9--9---9---9---9--9--9---9--9--9--9--9--| 
F |-----------------------------------------------------------| 
A#|-----------------------------------------------------------| 

C |-----------------------------------------------------------| 
G#|-14--14--14-14-14--14-14--14--14--14-14-14--14-14-14-14-14-| 
D#|-x---x---x--x--x---x--x---x---x---x--x--x---x--x--x--x--x--| 
A#|-12--12--12-12-12--12-12--12--12--12-12-12--12-12-12-12-12-| 
F |-----------------------------------------------------------| 
A#|-----------------------------------------------------------| 

C |-----------------------------------------------------------| 
G#|-19--19--19-19-19--19-19--19--19--19-19-19--19-19-19-19-19-| 
D#|-x---x---x--x--x---x--x---x---x---x--x--x---x--x--x--x--x--| 
A#|-17--17--17-17-17--17-17--17--17--17-17-17--17-17-17-17-17-| 
F |-----------------------------------------------------------| 
A#|-----------------------------------------------------------| 

C |------------------------------------------------------| 
G#|-16--16--16-16-16--16-16--16--16--16-16-16-16-16-16-9-| 
D#|-x---x---x--x--x---x--x---x---x---x--x--x--x--x--x--x-| 
A#|-14--14--14-14-14--14-14--14--14--14-14-14-14-14-14-7-| 
F |------------------------------------------------------| 
A#|------------------------------------------------------| 

C |-----------------------------------------------------------| 
G#|-11--11--11-11-11--11-11--11--11--11-11-11--11-11-11-11-11-| 
D#|-x---x---x--x--x---x--x---x---x---x--x--x---x--x--x--x--x--| 
A#|-9---9---9--9--9---9--9---9---9---9--9--9---9--9--9--9--9--| 
F |-----------------------------------------------------------| 
A#|-----------------------------------------------------------| 

C |-----------------------------------------------------------| 
G#|-14--14--14-14-14--14-14--14--14--14-14-14--14-14-14-14-14-| 
D#|-x---x---x--x--x---x--x---x---x---x--x--x---x--x--x--x--x--| 
A#|-12--12--12-12-12--12-12--12--12--12-12-12--12-12-12-12-12-| 
F |-----------------------------------------------------------| 
A#|-----------------------------------------------------------| 

C |-----------------------------------------------------------| 
G#|-16--16--16-16-16--16-16--16--16--16-16-16--16-16-16-16-16-| 
D#|-x---x---x--x--x---x--x---x---x---x--x--x---x--x--x--x--x--| 
A#|-14--14--14-14-14--14-14--14--14--14-14-14--14-14-14-14-14-| 
F |-----------------------------------------------------------| 
A#|-----------------------------------------------------------| 

C |--------------------------------------------------------| 
G#|-19--19--19-19-19--19-19--19--19--19-19-19-19-19-19-19?-| 
D#|-x---x---x--x--x---x--x---x---x---x--x--x--x--x--x--x---| 
A#|-17--17--17-17-17--17-17--17--17--17-17-17-17-17-17-17?-| 
F |--------------------------------------------------------| 
A#|--------------------------------------------------------| 


BRIDGE 2:20 
                          x16 
C |---------------------------| 
G#|---------------------------| 
D#|---------------------------| 
A#|---------------------------| 
F |---------------------------| 
A#|-2-0-0-2--0-0-0-2p0--0-0-3-| 
    * * *    * * *      * * 

Chorus 3 2:50 

Only variation is in the last line of the main guitar part, starting at 3:15. 

C |----------------------------------------------------------------| 
G#|----------------------------------------------------------------| 
D#|----------------------------------------------------------------| 
A#|----------------------------------------------------------------| 
F |----------------------------------------------------------------| 
A#|-10--10--10-10-10--10-10--10--10--10-10-10-12-12-12-12-12-12-12-| 

OUTRO 3:19 

Same as the intro riff. It can alternatively be played with single notes. 
Play it whichever way is more comfortable or better sounding to you! 

C |---------------------------------| |------------------------------| 
G#|---------------------------------| |------------------------------| 
D#|---------------------------------| |------------------------------|  
A#|---------------------------------| |------------------------------| 
F |---------2---3----------2--------| |---------2---3----------2---5-|  
A#|-2-0--2h3--0-3--2-0--2h3--0-0000-| |-2-0--2h3--0-3--2-0--2h3--0-5-|  
                               **** 

C |---------------------------------| |--------------------------| 
G#|---------------------------------| |--------------------------| 
D#|---------------------------------| |--------------------------| 
A#|---------------------------------| |--------------------------| 
F |---------2---3----------2--------| |---------2---3----------2-| 
A#|-2-0--2h3--0-3--2-0--2h3--0-0000-| |-2-0--2h3--0-3--2-0--2h3--| 
                               **** 


************************************ 

| /   slide up 
| \   slide down 
| h   hammer-on 
| p   pull-off 
| ~   vibrato 
| ?   let ring 
| +   harmonic 
| *   palm mute 
| x   mute note 
| b   bend 
| pb  pre-bend 
| br  bend release 
| pbr pre-bend release 
| brb bend release bend 

************************************ 
  

top 5 | janus
top rock'n roll
Outras músicas do artista letras do(a) Janus
Top cifras »Top artistas »
Petaxxon Comunicação Online
Cifras.com.br - Melhor e mais completo site de cifras e tablaturas do Brasil
Mais de 1 milhão de acordes de músicas cadastradas desde 2003
As informações contidas no nosso site são colaborações de seus usuários e podem conter erros, sendo assim, não nos responsabilizamos sobre nenhuma destas.
close
menos
mais
close
Cor dos acordes:

Cor da letra:

 

save
close
close
 
redimensionar