Cifras e Tablaturas
Japanese Breakfast
Cifras Cancelar Versão de Impressão

Japanese Breakfast - Triple 7

Tom: G

  			verse 1 
D|----------------------------|----------------------------| 
B|----------------------------|----------------------------| 
G|-----------4-----------4----|-----------4-----------4----| 
D|-----0-----------0----------|-----0-----------0----------| 
G|--------0-----------0-------|--------0-----------0-------| 
D|--5-----------5-------------|--5-----------5-------------| 

    Don't you know I've          always been this  
D|----------------------------|----------------------------| 
B|----------------------------|----------------------------| 
G|-----------4-----------4----|-----------4-----------4----| 
D|-----0-----------0----------|-----0-----------0----------| 
G|--------0-----------0-------|--------0-----------0-------| 
D|--5-----------5-------------|--5-----------5-------------| 

    way? 
D|----------------------------|----------------------------| 
B|-----------0-----------0----|-----------0-----------0----| 
G|-----4-----------4----------|-----4-----------4----------| 
D|--------0-----------0-------|--------0-----------0-------| 
G|--5-----------5-------------|--5-----------5-------------| 
D|----------------------------|----------------------------| 

                                             I look to 
D|----------------------------|----------------------------| 
B|-----------0-----------0----|-----------0-----------0----| 
G|-----4-----------4----------|-----4-----------4----------| 
D|--------0-----------0-------|--------0-----------0-------| 
G|--5-----------5-------------|--5-----------5-------------| 
D|----------------------------|----------------------------| 

    you                          through the  
D|----------------------------|----------------------------| 
B|----------------------------|----------------------------| 
G|-----------4-----------4----|-----------4-----------4----| 
D|-----0-----------0----------|-----0-----------0----------| 
G|--------0-----------0-------|--------0-----------0-------| 
D|--5-----------5-------------|--5-----------5-------------| 

    work week 
D|----------------------------|----------------------------| 
B|-----------0-----------0----|-----------0-----------0----| 
G|-----4-----------4----------|-----4-----------4----------| 
D|--------0-----------0-------|--------0-----------0-------| 
G|--5-----------5-------------|--5-----------5-------------| 
D|----------------------------|----------------------------| 

                                            And I 
D|----------------------------|----------------------------| 
B|-----------0-----------0----|-----------0-----------0----| 
G|-----4-----------4----------|-----4-----------4----------| 
D|--------0-----------0-------|--------0-----------0-------| 
G|--5-----------5-------------|--5-----------5-------------| 
D|----------------------------|----------------------------| 

    love a man                   in uniform                     
D|----------------------------|----------------------------| 
B|----------------------------|----------------------------| 
G|-----------4-----------4----|-----------4-----------4----| 
D|-----0-----------0----------|-----0-----------0----------| 
G|--------0-----------0-------|--------0-----------0-------| 
D|--5-----------5-------------|--5-----------5-------------| 

                                             'Cause he 
D|----------------------------|----------------------------| 
B|----------------------------|----------------------------| 
G|-----------4-----------4----|-----------4-----------4----| 
D|-----0-----------0----------|-----0-----------0----------| 
G|--------0-----------0-------|--------0-----------0-------| 
D|--5-----------5-------------|--5-----------5-------------| 

    treats me like a             slot machine 
D|----------------------------|----------------------------| 
B|-----------0-----------0----|-----------0-----------0----| 
G|-----4-----------4----------|-----4-----------4----------| 
D|--------0-----------0-------|--------0-----------0-------| 
G|--5-----------5-------------|--5-----------5-------------| 
D|----------------------------|----------------------------| 

                                             From the 
D|----------------------------|----------------------------| 
B|-----------0-----------0----|-----------0-----------0----| 
G|-----4-----------4----------|-----4-----------4----------| 
D|--------0-----------0-------|--------0-----------0-------| 
G|--5-----------5-------------|--5-----------5-------------| 
D|----------------------------|----------------------------| 

    valley                       of loose   
D|----------------------------|----------------------------| 
B|----------------------------|----------------------------| 
G|-----------4-----------4----|-----------2-----------2----| 
D|-----0-----------0----------|-----0-----------0----------| 
G|--------0-----------0-------|--------0-----------0-------| 
D|--5-----------5-------------|--4-----------4-------------| 

    women                                    In the 
D|----------------------------|----------------------------| 
B|----------------------------|-----------0-----------0----| 
G|-----------0-----------0----|----------------------------| 
D|-----0-----------0----------|-----0-----------0----------| 
G|--------0-----------0-------|--------0-----------0-------| 
D|--2-----------2-------------|--0-----------0-------------| 

    cruel light                       of morning 
D|----------------------------|----------------------------| 
B|-----------0-----------0----|-----------0-----------0----| 
G|-----4-----------4----------|-----7-----------7----------| 
D|--------0-----------0-------|--------0-----------0-------| 
G|--5-----------5-------------|--7-----------7-------------| 
D|----------------------------|----------------------------| 

D|----------------------------|----------------------------| 
B|----------------------------|----------------------------| 
G|-----------4-----------4----|-----------4-----------4----| 
D|-----0-----------0----------|-----0-----------0----------| 
G|--------0-----------0-------|--------0-----------0-------| 
D|--5-----------5-------------|--5-----------5-------------| 

Chorus 1  
                                             Call out my 
D|----------------------------|----------------------------| 
B|----------------------------|----------------------------| 
G|-----------4-----------4----|-----------4-----------4----| 
D|-----0-----------0----------|-----0-----------0----------| 
G|--------0-----------0-------|--------0-----------0-------| 
D|--5-----------5-------------|--5-----------5-------------| 

    name                         like        some -  
D|----------------------------|----------------------------| 
B|----------------------------|----------------------------| 
G|-----------0-----------0----|-----------0-----------0----| 
D|-----0-----------0----------|-----0-----------0----------| 
G|--------0-----------0-------|--------0-----------0-------| 
D|--2-----------2-------------|--2-----------2-------------| 

    thing                                    from the  
D|----------------------------|----------------------------| 
B|-----------0-----------0----|-----------0-----------0----| 
G|----------------------------|----------------------------| 
D|-----0-----------0----------|-----0-----------0----------| 
G|--------0-----------0-------|--------0-----------0-------| 
D|--0-----------0-------------|--0-----------0-------------| 

    bottom                       of a  
D|----------------------------|----------------------------| 
B|-----------0-----------0----|-----------0-----------0----| 
G|-----4-----------4----------|-----4-----------4----------| 
D|--------0-----------0-------|--------0-----------0-------| 
G|--5-----------5-------------|--5-----------5-------------| 
D|----------------------------|----------------------------| 

    well                                     Oh, how I 
D|----------------------------|----------------------------| 
B|----------------------------|----------------------------| 
G|-----------4-----------4----|-----------4-----------4----| 
D|-----0-----------0----------|-----0-----------0----------| 
G|--------0-----------0-------|--------0-----------0-------| 
D|--5-----------5-------------|--5-----------5-------------| 

    want,                                    how I  
D|----------------------------|----------------------------| 
B|----------------------------|----------------------------| 
G|-----------0-----------0----|-----------0-----------0----| 
D|-----0-----------0----------|-----0-----------0----------| 
G|--------0-----------0-------|--------0-----------0-------| 
D|--2-----------2-------------|--2-----------2-------------| 

    need                                     How I 
D|----------------------------|----------------------------| 
B|-----------0-----------0----|-----------0-----------0----| 
G|----------------------------|----------------------------| 
D|-----0-----------0----------|-----0-----------0----------| 
G|--------0-----------0-------|--------0-----------0-------| 
D|--0-----------0-------------|--0-----------0-------------| 

    cling to your                sleeves 'til they're like 
D|----------------------------|----------------------------| 
B|-----------0-----------0----|-----------0-----------0----| 
G|-----4-----------4----------|-----7-----------7----------| 
D|--------0-----------0-------|--------0-----------0-------| 
G|--5-----------5-------------|--7-----------7-------------| 
D|----------------------------|----------------------------| 

    lacerated                    sails 
D|----------------------------|----------------------------| 
B|-----------0-----------0----|----------------------------| 
G|-----4-----------4----------|-----------4-----------4----| 
D|--------0-----------0-------|-----0-----------0----------| 
G|--5-----------5-------------|--------0-----------0-------| 
D|----------------------------|--5-----------5-------------| 

D|----------------------------|----------------------------| 
B|----------------------------|----------------------------| 
G|-----------4-----------4----|-----------4-----------4----| 
D|-----0-----------0----------|-----0-----------0----------| 
G|--------0-----------0-------|--------0-----------0-------| 
D|--5-----------5-------------|--5-----------5-------------| 

                But in the       night       I am 
D|----------------------------|----------------------------| 
B|----------------------------|-----------0-----------0----| 
G|-----------4-----------4----|-----4-----------4----------| 
D|-----0-----------0----------|--------0-----------0-------| 
G|--------0-----------0-------|--5-----------5-------------| 
D|--5-----------5-------------|----------------------------| 

                someone          else 
D|----------------------------|----------------------------| 
B|-----------0-----------0----|----------------------------| 
G|-----7-----------7----------|-----------4-----------4----| 
D|--------0-----------0-------|-----0-----------0----------| 
G|--7-----------7-------------|--------0-----------0-------| 
D|----------------------------|--5-----------5-------------| 
   
D|----------------------------|----------------------------| 
B|----------------------------|----------------------------| 
G|-----------4-----------4----|-----------4-----------4----| 
D|-----0-----------0----------|-----0-----------0----------| 
G|--------0-----------0-------|--------0-----------0-------| 
D|--5-----------5-------------|--5-----------5-------------| 

D|----------------------------| 
B|----------------------------| 
G|-----------4-----------4----| 
D|-----0-----------0----------| 
G|--------0-----------0-------| 
D|--5-----------5-------------| 

verse 2 
    Don't you know it's          always      been the 
D|----------------------------|----------------------------| 
B|----------------------------|----------------------------| 
G|-----------4-----------4----|-----------4-----------4----| 
D|-----0-----------0----------|-----0-----------0----------| 
G|--------0-----------0-------|--------0-----------0-------| 
D|--5-----------5-------------|--5-----------5-------------| 

    same? 
D|----------------------------|----------------------------| 
B|-----------0-----------0----|-----------0-----------0----| 
G|-----4-----------4----------|-----4-----------4----------| 
D|--------0-----------0-------|--------0-----------0-------| 
G|--5-----------5-------------|--5-----------5-------------| 
D|----------------------------|----------------------------| 

                                             A pure 
D|----------------------------|----------------------------| 
B|-----------0-----------0----|-----------0-----------0----| 
G|-----4-----------4----------|-----4-----------4----------| 
D|--------0-----------0-------|--------0-----------0-------| 
G|--5-----------5-------------|--5-----------5-------------| 
D|----------------------------|----------------------------| 

    woman's     hard to find,                to come by 
D|----------------------------|----------------------------| 
B|----------------------------|----------------------------| 
G|-----------4-----------4----|-----------4-----------4----| 
D|-----0-----------0----------|-----0-----------0----------| 
G|--------0-----------0-------|--------0-----------0-------| 
D|--5-----------5-------------|--5-----------5-------------| 

    these days 
D|----------------------------|----------------------------| 
B|-----------0-----------0----|-----------0-----------0----| 
G|-----4-----------4----------|-----4-----------4----------| 
D|--------0-----------0-------|--------0-----------0-------| 
G|--5-----------5-------------|--5-----------5-------------| 
D|----------------------------|----------------------------| 

                                             And I 
D|----------------------------|----------------------------| 
B|-----------0-----------0----|-----------0-----------0----| 
G|-----4-----------4----------|-----4-----------4----------| 
D|--------0-----------0-------|--------0-----------0-------| 
G|--5-----------5-------------|--5-----------5-------------| 
D|----------------------------|----------------------------| 

    know the looks of            urge and scorn 
D|----------------------------|----------------------------| 
B|----------------------------|----------------------------| 
G|-----------4-----------4----|-----------4-----------4----| 
D|-----0-----------0----------|-----0-----------0----------| 
G|--------0-----------0-------|--------0-----------0-------| 
D|--5-----------5-------------|--5-----------5-------------| 

                                             And I  
D|----------------------------|----------------------------| 
B|----------------------------|----------------------------| 
G|-----------4-----------4----|-----------4-----------4----| 
D|-----0-----------0----------|-----0-----------0----------| 
G|--------0-----------0-------|--------0-----------0-------| 
D|--5-----------5-------------|--5-----------5-------------| 

    know the role I'm            meant to play 
D|----------------------------|----------------------------| 
B|-----------0-----------0----|-----------0-----------0----| 
G|-----4-----------4----------|-----4-----------4----------| 
D|--------0-----------0-------|--------0-----------0-------| 
G|--5-----------5-------------|--5-----------5-------------| 
D|----------------------------|----------------------------| 

                                             The 
D|----------------------------|----------------------------| 
B|-----------0-----------0----|-----------0-----------0----| 
G|-----4-----------4----------|-----4-----------4----------| 
D|--------0-----------0-------|--------0-----------0-------| 
G|--5-----------5-------------|--5-----------5-------------| 
D|----------------------------|----------------------------| 

    role of the                  other 
D|----------------------------|----------------------------| 
B|----------------------------|----------------------------| 
G|-----------4-----------4----|-----------2-----------2----| 
D|-----0-----------0----------|-----0-----------0----------| 
G|--------0-----------0-------|--------0-----------0-------| 
D|--5-----------5-------------|--4-----------4-------------| 

    woman                                    Who will 
D|----------------------------|----------------------------| 
B|----------------------------|-----------0-----------0----| 
G|-----------0-----------0----|----------------------------| 
D|-----0-----------0----------|-----0-----------0----------| 
G|--------0-----------0-------|--------0-----------0-------| 
D|--2-----------2-------------|--0-----------0-------------| 

    spend her life                           longing 
D|----------------------------|----------------------------| 
B|-----------0-----------0----|-----------0-----------0----| 
G|-----4-----------4----------|-----7-----------7----------| 
D|--------0-----------0-------|--------0-----------0-------| 
G|--5-----------5-------------|--7-----------7-------------| 
D|----------------------------|----------------------------| 

D|----------------------------|----------------------------| 
B|----------------------------|----------------------------| 
G|-----------4-----------4----|-----------4-----------4----| 
D|-----0-----------0----------|-----0-----------0----------| 
G|--------0-----------0-------|--------0-----------0-------| 
D|--5-----------5-------------|--5-----------5-------------| 

Chorus 2 
                                             Call out my 
D|----------------------------|----------------------------| 
B|----------------------------|----------------------------| 
G|-----------4-----------4----|-----------4-----------4----| 
D|-----0-----------0----------|-----0-----------0----------| 
G|--------0-----------0-------|--------0-----------0-------| 
D|--5-----------5-------------|--5-----------5-------------| 

    name                                     like some - 
D|----------------------------|----------------------------| 
B|----------------------------|----------------------------| 
G|-----------0-----------0----|-----------0-----------0----| 
D|-----0-----------0----------|-----0-----------0----------| 
G|--------0-----------0-------|--------0-----------0-------| 
D|--2-----------2-------------|--2-----------2-------------| 

    thing                                    from the 
D|----------------------------|----------------------------| 
B|-----------0-----------0----|-----------0-----------0----| 
G|----------------------------|----------------------------| 
D|-----0-----------0----------|-----0-----------0----------| 
G|--------0-----------0-------|--------0-----------0-------| 
D|--0-----------0-------------|--0-----------0-------------| 

    bottom                       of a 
D|----------------------------|----------------------------| 
B|-----------0-----------0----|-----------0-----------0----| 
G|-----4-----------4----------|-----4-----------4----------| 
D|--------0-----------0-------|--------0-----------0-------| 
G|--5-----------5-------------|--5-----------5-------------| 
D|----------------------------|----------------------------| 

    well                                     Oh, how I 
D|----------------------------|----------------------------| 
B|----------------------------|----------------------------| 
G|-----------4-----------4----|-----------4-----------4----| 
D|-----0-----------0----------|-----0-----------0----------| 
G|--------0-----------0-------|--------0-----------0-------| 
D|--5-----------5-------------|--5-----------5-------------| 

    want,                                    how I 
D|----------------------------|----------------------------| 
B|----------------------------|----------------------------| 
G|-----------0-----------0----|-----------0-----------0----| 
D|-----0-----------0----------|-----0-----------0----------| 
G|--------0-----------0-------|--------0-----------0-------| 
D|--2-----------2-------------|--2-----------2-------------| 

    need,                                    how I  
D|----------------------------|----------------------------| 
B|-----------0-----------0----|-----------0-----------0----| 
G|----------------------------|----------------------------| 
D|-----0-----------0----------|-----0-----------0----------| 
G|--------0-----------0-------|--------0-----------0-------| 
D|--0-----------0-------------|--0-----------0-------------| 

    cling to your                sleeves     'til they're all 
D|----------------------------|----------------------------| 
B|-----------0-----------0----|-----------0-----------0----| 
G|-----4-----------4----------|-----7-----------7----------| 
D|--------0-----------0-------|--------0-----------0-------| 
G|--5-----------5-------------|--7-----------7-------------| 
D|----------------------------|----------------------------| 

    fucked beyond                repair 
D|----------------------------|----------------------------| 
B|-----------0-----------0----|----------------------------| 
G|-----4-----------4----------|-----------4-----------4----| 
D|--------0-----------0-------|-----0-----------0----------| 
G|--5-----------5-------------|--------0-----------0-------| 
D|----------------------------|--5-----------5-------------| 

D|----------------------------|----------------------------| 
B|----------------------------|----------------------------| 
G|-----------4-----------4----|-----------4-----------4----| 
D|-----0-----------0----------|-----0-----------0----------| 
G|--------0-----------0-------|--------0-----------0-------| 
D|--5-----------5-------------|--5-----------5-------------| 

                But in the       night       I am 
D|----------------------------|----------------------------| 
B|----------------------------|-----------0-----------0----| 
G|-----------4-----------4----|-----4-----------4----------| 
D|-----0-----------0----------|--------0-----------0-------| 
G|--------0-----------0-------|--5-----------5-------------| 
D|--5-----------5-------------|----------------------------| 

                someone          else 
D|----------------------------|----------------------------| 
B|-----------0-----------0----|----------------------------| 
G|-----7-----------7----------|-----------4-----------4----| 
D|--------0-----------0-------|-----0-----------0----------| 
G|--7-----------7-------------|--------0-----------0-------| 
D|----------------------------|--5-----------5-------------| 

               Yes, in the      night        I am 
D|----------------------------|----------------------------| 
B|----------------------------|-----------0-----------0----| 
G|-----------4-----------4----|-----4-----------4----------| 
D|-----0-----------0----------|--------0-----------0-------| 
G|--------0-----------0-------|--5-----------5-------------| 
D|--5-----------5-------------|----------------------------| 

                someone          else 
D|----------------------------|----------------------------| 
B|-----------0-----------0----|----------------------------| 
G|-----7-----------7----------|-----------4-----------4----| 
D|--------0-----------0-------|-----0-----------0----------| 
G|--7-----------7-------------|--------0-----------0-------| 
D|----------------------------|--5-----------5-------------| 

                Oh, in the       night       I am 
D|----------------------------|----------------------------| 
B|----------------------------|-----------0-----------0----| 
G|-----------4-----------4----|-----4-----------4----------| 
D|-----0-----------0----------|--------0-----------0-------| 
G|--------0-----------0-------|--5-----------5-------------| 
D|--5-----------5-------------|----------------------------| 

                someone          else 
D|----------------------------|----------------------------| 
B|-----------0-----------0----|----------------------------| 
G|-----7-----------7----------|-----------4-----------4----| 
D|--------0-----------0-------|-----0-----------0----------| 
G|--7-----------7-------------|--------0-----------0-------| 
D|----------------------------|--5-----------5-------------| 

D|----------------------------|----------------------------| 
B|----------------------------|----------------------------| 
G|-----------4-----------4----|-----------4-----------4----| 
D|-----0-----------0----------|-----0-----------0----------| 
G|--------0-----------0-------|--------0-----------0-------| 
D|--5-----------5-------------|--5-----------5-------------| 

D|----------------------------|----------------------------| 
B|----------------------------|----------------------------| 
G|-----------4-----------4----|----------------------------| 
D|-----0-----------0----------|----------------------------| 
G|--------0-----------0-------|----------------------------| 
D|--5-----------5-------------|--5-------------------------| 
    	
fixar
fixar inscrever-se

enviado porenviado por: deivcavalcanti
cifra enviadaCorrigida por: sem correções
logo top cifrasComente
ico música do artistaMúsicas deste artista
ico curtiuCurtiu?
ico destaqueDestaque
Petaxxon Comunicação Online

Cifras.com.br - Melhor e mais completo site de cifras e tablaturas do Brasil Mais de 1 milhão de acordes de músicas cadastradas desde 2003
As informações contidas no nosso site são colaborações de seus usuários e podem conter erros, sendo assim, não nos responsabilizamos sobre nenhuma destas.

close
menos
mais
close
Cor dos acordes:

Cor da letra:

close
Alinhar acordes a direita Alinhar acordes a esquerda Alinhar acordes em baixo Alinhar acordes no topo
close
  Mostrar todos os acordes Esconder acordes muito fáceis Esconder acordes fáceis Esconder acordes intermediários
redimensionar
glossário