Cifras e Tablaturas
Jeff Beck

Jeff Beck

I Can't Give Back The Love I Feel For You

Cifras Cancelar Versão de Impressão

Jeff Beck - I Can't Give Back The Love I Feel For You

Tom: A

  			Intro A 
e|---0--0-2--0---0--0-2--0--|-------------------------------------| 
B|---0--0-0--0---0--0-0--0--|-------------------------------------| 
G|--(4)---------------------|-13\11-9-----4-6-6/8-6/8-8\6-6/8~----| 
D|-----------7--------------|--------11~--------------------------| 
A|-2---------5--------------|-------------------------------------| 
E|-0------------------------|-------------------------------------| 

Intro B 
e|-----0--0-0--0-2-0-----0--0-0--2--|-----------------------------| 
B|-0h2--------------0h2-------------|--10/12~-10\8~-7-7~-5-5~-----| 
G|----------------------------------|-----------------------------| 
D|----------------------------------|-----------------------------| 
A|----------------------------------|-----------------------------| 
E|----------------------------------|-----------------------------| 

Transition- can be done by bass or guitar  
e|----------------| 
B|----------------| 
G|----------------| 
D|----------------| 
A|-7-5-3~--3-2-0--| 
E|----------------| 

0:24 
Figure A 
e|----------------------------|-----------------------------------------|----------------------| 
B|---10-10/12~12~12~12-10/12~-|-----10-10/12/10-10~--12\10/12-12-12-12~-|-----10-10/12-10-10~--| 
G|--12------------------------|----12-----------------------------------|----12----------------| 
D|-12-------------------------|---12------------------------------------|---12-----------------| 
A|----------------------------|-----------------------------------------|----------------------| 
E|----------------------------|-----------------------------------------|----------------------| 

Figure B 
e|---------------------|--------------------|---------------------7--------------------| 
B|-10-8-7~5/7\5/7\5/7~-|-7-7-5-3-3-3-5/7\5~-|---7-7--7-7--7-7~-5/7-7-5\3-3/5-7\5~------| 
G|---------------------|--------------------|------------------------------------------| 
D|---------------------|--------------------|------------------------------------------| 
A|---------------------|--------------------|------------------------------------------| 
E|---------------------|--------------------|------------------------------------------| 

Figure A repeats until 1:00 
e|----------------------------|-----------------------------------------|----------------------| 
B|---10-10/12~12~12~12-10/12~-|-----10-10/12/10-10~--12\10/12-12-12-12~-|-----10-10/12-10-10~--| 
G|--12------------------------|----12-----------------------------------|----12----------------| 
D|-12-------------------------|---12------------------------------------|---12-----------------| 
A|----------------------------|-----------------------------------------|----------------------| 
E|----------------------------|-----------------------------------------|----------------------| 

e|------------------------------------------------------------------| 
B|-5-7-8\(Slowly slide down the neck)---7-5-7~--7-5-8~--5\3/5\3~----| 
G|------------------------------------------------------------------| 
D|------------------------------------------------------------------| 
A|------------------------------------------------------------------| 
E|------------------------------------------------------------------| 

Repeat Intro A. Followed with this varation on the intro "Intro C" 
e|---0--0-2--0---0--0-2--0-----------|-------------------------| 
B|---0--0-0--0---0--0-0--0-----------|-------------------------| 
G|--(4)-------------------13\11-9----|-4-6-6/8-6/8-8\6-6/8~----| 
D|-----------7-------------------11~-|-------------------------| 
A|-2---------5-----------------------|-------------------------| 
E|-0---------------------------------|-------------------------| 

e|-0-0-0-0-2-4-0----------------------------------------|------------------| 
B|-0-------------0h2--/5/5/5/5/5/5--5/12~10\8-7-7~-5-5~-|------------------| 
G|------------------------------------------------------|------------------| 
D|------------------------------------------------------|------------------| 
A|------------------------------------------------------|--7-5-3~-3-2-0----| 
E|------------------------------------------------------|------------------| 

Repeat Figure A until 2:07 (Guitar 2 joins in here and plays the same part) 
e|----------------------------|-----------------------------------------|----------------------| 
B|---10-10/12~12~12~12-10/12~-|-----10-10/12/10-10~--12\10/12-12-12-12~-|-----10-10/12-10-10~--| 
G|--12------------------------|----12-----------------------------------|----12----------------| 
D|-12-------------------------|---12------------------------------------|---12-----------------| 
A|----------------------------|-----------------------------------------|----------------------| 
E|----------------------------|-----------------------------------------|----------------------| 

Outro 
e|--------------------|----------------------------------------| 
B|-13~-13\11\9/11/13~-|---13-13~11-11~--11/13/14~-\13\11~------| 
G|--------------------|--13------------------------------------| 
D|--------------------|-13-------------------------------------| 
A|--------------------|----------------------------------------| 
E|--------------------|----------------------------------------| 

2:13 
e|---------------------------------|-----23~-23-23-22-23-21~----------------------| 
B|-11/13~-11/13~-11/13\11/13\11\9~-|---13----------------------13~-13\11\9/11/13~-| 
G|---------------------------------|--13------------------------------------------| 
D|---------------------------------|----------------------------------------------| 
A|---------------------------------|----------------------------------------------| 
E|---------------------------------|----------------------------------------------| 

e|---------------------------------| 
B|---------------------------------| 
G|-11--11-11-11--11--10--8--6/8~---| 
D|---------------------------------| 
A|---------------------------------| 
E|---------------------------------| 

e|-----------13\11/13-----------------------------|-------------------------------| 
B|--13\11/13----------13\11/13--------------------|------------11-13~-11-13-14-16~| 
G|-----------------------------13\11/13-----------|---13-13-13--------------------| 
D|--------------------------------------13\11/13~-|-13----------------------------| 
A|------------------------------------------------|-------------------------------| 
E|------------------------------------------------|-------------------------------| 

2:30, begining to fade 
e|------------------|----------------------23~23~23~--------------------------| 
B|--13-14-16--------|---13-14-16~----13-14------------------------------------| 
G|-----------13-13~-|-13~----(13)---------------------------------------------| 
D|------------------|---------------------------------------------------------| 
A|------------------|---------------------------------------------------------| 
E|------------------|---------------------------------------------------------| 

************************************ 

| h   Hammer-on 
| /   Slide up 
| \   Slide down 
| ~   Vibrato 

************************************ 
    	
fixar
fixar inscrever-se

enviado porenviado por: hebealmeida
cifra enviadaCorrigida por: sem correções
logo top cifrasComente
ico música do artistaMúsicas deste artista
ico curtiuCurtiu?
ico destaqueDestaque
Petaxxon Comunicação Online

Cifras.com.br - Melhor e mais completo site de cifras e tablaturas do Brasil Mais de 1 milhão de acordes de músicas cadastradas desde 2003
As informações contidas no nosso site são colaborações de seus usuários e podem conter erros, sendo assim, não nos responsabilizamos sobre nenhuma destas.

close
menos
mais
close
Cor dos acordes:

Cor da letra:

close
Alinhar acordes a direita Alinhar acordes a esquerda Alinhar acordes em baixo Alinhar acordes no topo
close
  Mostrar todos os acordes Esconder acordes muito fáceis Esconder acordes fáceis Esconder acordes intermediários
redimensionar
glossário