Cifras e Tablaturas
Jefferson Starship

Jefferson Starship

Light The Sky On Fire

Ano: 1979
Album : Gold

Cifras Cancelar Versão de Impressão
cifras

Jefferson Starship - Light The Sky On Fire

fixar na tela  
Exibindo: vídeo-aula ver clipes redimensionar

Tom:

  
Intro (Copied from outro) 
LEAD 
  PM--------------| 
e|-----------------| 
B|-----------------| 
G|-----------------| 
D|-----------------| x~10 
A|-----------------| 
D|-0-0-0-0-0-0-0-0-| 

PANNED FUZZ 
e|-----------------| 
B|-----------------| 
G|-----------------| 
D|-----------------|  
A|-0---------------| Hold  
D|-0---------------| 

Pre Verse (0:09) 
LEAD - FADE OUT 
LEFT - FADE OUT 

RIGHT CLEAN 
  PM------|         PM----|  PM-|  PM-----| 
e|---------3-2-----|-----------------|---------0-------|-----------------| 
B|-----3-------3---|-------1-----3---|-----3-----3---0-|-------3-----3---| 
G|---2---2-------2-|-----2-----0---0-|---0---0-----0---|-----0-----0---0-| 
D|-0---------------|-0-3-----3-------|-2---------------|-2/3-----3-------| 
A|-----------------|-----------------|-----------------|-----------------| 
D|-----------------|-----------------|-----------------|-----------------| 

Verse (0:15) 
LEAD - TACET 
LEFT - TACET 

RIGHT 
e|-----2---0-------|-----------------|---------0-------|-----------------| 
B|-------------3---|-------1-----3---|-----3-----3---0-|-------3-----3---| 
G|---2---2---2---2-|-----2-----0---0-|---0---0-----0---|-----0-----0---0-| 
D|-0---------------|-0-3-----3-------|-2---------------|-2/3-----3-------| x2 
A|-----------------|-----------------|-----------------|-----------------| 
D|-----------------|-----------------|-----------------|-----------------| 

LEFT CLEAN 
e|-----2---0-------|-----------------|-----------------|-------0---------| 
B|-----3---3---3---|-----1---0-------|-------------0---|-----1-----1---3-| 
G|-----2---2---2---|-----2---2---2---|-0-------0---0---|---2---------2---| 
D|-0---------------|-3-------3---3---|-2-------2---2---|-3---------------| 
A|-----------------|-------------3---|-2-------2-------|-----------------| 
D|-----------------|-----------------|-2---------------|-----------------| 

RIGHT 
e|-----2---0-------|-----------------|---------0-------|-----------------| 
B|-------------3---|-------1-----3---|-----3-----3---0-|-------3-----3---| 
G|---2---2---2---2-|-----2-----0---0-|---0---0-----0---|-----0-----0---0-| 
D|-0---------------|-0-3-----3-------|-2---------------|-2/3-----3-------| 
A|-----------------|-----------------|-----------------|-----------------| 
D|-----------------|-----------------|-----------------|-----------------| 

LEFT 
e|-----2---0-------|---0---0---------|-----------------|-------0---------| 
B|-----3---3---3---|---1-1-1-----1---|-------------0---|-----1-----1---3-| 
G|-----2---2---2---|---2-2-2---0---0-|-0-------0---0---|---2---------2---| 
D|-0---------------|-3---3-----------|-2-------2---2---|-3---------------| 
A|-----------------|-----------------|-2-------2-------|-----------------| 
D|-----------------|-----------------|-2---------------|-----------------| 

RIGHT 
e|-----2---0-------|-----------------|---------0-------|-----------------| 
B|-------------3---|-------1-----3---|-----3-----3---0-|-------3-----3---| 
G|---2---2---2---2-|-----2-----0---0-|---0---0-----0---|-----0-----0---0-| 
D|-0---------------|-0-3-----3-------|-2---------------|-2/3-----3-------| 
A|-----------------|-----------------|-----------------|-----------------| 
D|-----------------|-----------------|-----------------|-----------------| 

LEFT 
e|-----2---0-------|---0---0---------|-----------------|-----------------| 
B|-----3---3---3---|---1-1-1-----1---|-5---------------|-----------------| 
G|-----2---2---2---|---2-2-2---0---0-|-4---------------|-----------------| 
D|-0---------------|-3---3-----------|-2---------------|-----------------| 
A|-----------------|-----------------|-2---------------|-----------------| 
D|-----------------|-----------------|-2---------------|-----------------| 

RIGHT                                                    +FUZZ 
e|-----2---0-------|-----------------|-----------------|-----------------| 
B|-------------3---|-------1-----3---|-5-5-5-5-5-5-5-5-|-----------------| 
G|---2---2---2---2-|-----2-----0---0-|-4-4-4-4-4-4-4-4-|-----------------| 
D|-0---------------|-0-3-----3-------|-2-2-2-2-2-2-2-2-|---0-3-5-5-3-0-0-| 
A|-----------------|-----------------|-2-2-2-2-2-2-2-2-|-----------------| 
D|-----------------|-----------------|-2-2-2-2-2-2-2-2-|-----------------| 

Chorus (0:45) 

LEFT FUZZ 
e|-----------------|-----------------|-----------------|-----------------| 
B|-----------------|-----------------|-----------------|-----------------| 
G|-7-------7-------|-5-------5-------|-----------------|-----------------| 
D|-7-------7-------|-5-------5-------|-3-5-5-5-5-5-5-3-|-----------------| 
A|-5-------5-------|-3-------3-------|-3-5-5-5-5-5-5-3-|---0-3-5-5-3-0-0-| 
D|-----------------|-----------------|-3-5-5-5-5-5-5-3-|---0-3-5-5-3-0-0-| 

RIGHT(x4) 
e|-----------------|-----------------|-----------------|-----------------| 
B|-----------------|-----------------|-----------------|-----------------| 
G|-7---x-x-7---x-x-|-5---x-x-5---x-x-|-----------------|-----------------| 
D|-7---x-x-7---x-x-|-5---x-x-5---x-x-|-3-5-x-x-5-x-5-3-|-----------------| 
A|-5---x-x-5---x-x-|-3---x-x-3---x-x-|-3-5-x-x-5-x-5-3-|---0-3-5-5-3-0-0-| 
D|-----------------|-----------------|-3-5-x-x-5-x-5-3-|---0-3-5-5-3-0-0-| 

Pre Verse (1:09) 

LEFT 
e|-----------------|-5-5-------------|-----------------|-----------------| 
B|-----------------|-5-5-------------|-----------------|-----------------| 
G|-7-------7-------|-5-5-------------|-----------------|-----------------| 
D|-7-------7-------|-5-5-------------|-----------------|-----------------| 
A|-5-------5-------|-5-5-------------|-----------------|-----------------| 
D|-----------------|-----------------|-----------------|-----------------| 

RIGHT               CLEAN 
e|---------3-2-----|-----------------|---------0-------|-----------------| 
B|-----3-------3---|-------1-----3---|-----3-----3---0-|-------3-----3---| 
G|---2---2-------2-|-----2-----0---0-|---0---0-----0---|-----0-----0---0-| 
D|-0---------------|-0-3-----3-------|-2---------------|-2/3-----3-------| 
A|-----------------|-----------------|-----------------|-----------------| 
D|-----------------|-----------------|-----------------|-----------------| 

Verse 
LEFT - TACET 
RIGHT 
e|-----2---0-------|-----------------|---------0-------|-----------------| 
B|-------------3---|-------1-----3---|-----3-----3---0-|-------3-----3---| 
G|---2---2---2---2-|-----2-----0---0-|---0---0-----0---|-----0-----0---0-| 
D|-0---------------|-0-3-----3-------|-2---------------|-2/3-----3-------| 
A|-----------------|-----------------|-----------------|-----------------| 
D|-----------------|-----------------|-----------------|-----------------| 

LEFT CLEAN 
e|-----2---0-------|---0---0---------|-----------------|-------0---------| 
B|-----3---3---3---|---1-1-1-----1---|-------------0---|-----1-----1---3-| 
G|-----2---2---2---|---2-2-2---0---0-|-0-------0---0---|---2---------2---| 
D|-0---------------|-3---3-----------|-2-------2---2---|-3---------------| 
A|-----------------|-----------------|-2-------2-------|-----------------| 
D|-----------------|-----------------|-2---------------|-----------------| 

RIGHT 
e|-----2---0-------|-----------------|---------0-------|-----------------| 
B|-------------3---|-------1-----3---|-----3-----3---0-|-------3-----3---| 
G|---2---2---2---2-|-----2-----0---0-|---0---0-----0---|-----0-----0---0-| 
D|-0---------------|-0-3-----3-------|-2---------------|-2/3-----3-------| 
A|-----------------|-----------------|-----------------|-----------------| 
D|-----------------|-----------------|-----------------|-----------------| 

LEFT 
e|-----2---0-------|---0---0---------|-----------------|-----------------| 
B|-----3---3---3---|---1-1-1-----1---|-5---------------|-----------------| 
G|-----2---2---2---|---2-2-2---0---0-|-4---------------|-----------------| 
D|-0---------------|-3---3-----------|-2---------------|-----------------| 
A|-----------------|-----------------|-2---------------|-----------------| 
D|-----------------|-----------------|-2---------------|-----------------| 

RIGHT                                                     +FUZZ 
e|-----2---0-------|-----------------|-----------------|-----------------| 
B|-------------3---|-------1-----3---|-5-5-5-5-5-5-5-5-|-----------------| 
G|---2---2---2---2-|-----2-----0---0-|-4-4-4-4-4-4-4-4-|-----------------| 
D|-0---------------|-0-3-----3-------|-2-2-2-2-2-2-2-2-|---0-3-5-5-3-0-0-| 
A|-----------------|-----------------|-2-2-2-2-2-2-2-2-|-----------------| 
D|-----------------|-----------------|-2-2-2-2-2-2-2-2-|-----------------| 

Chorus (1:33) 
LEFT FUZZ 
e|-----------------|-----------------|-----------------|-----------------| 
B|-----------------|-----------------|-----------------|-----------------| 
G|-7-------7-------|-5-------5-------|-----------------|-----------------| 
D|-7-------7-------|-5-------5-------|-3-5-5-5-5-5-5-3-|-----------------| 
A|-5-------5-------|-3-------3-------|-3-5-5-5-5-5-5-3-|---0-3-5-5-3-0-0-| 
D|-----------------|-----------------|-3-5-5-5-5-5-5-3-|---0-3-5-5-3-0-0-| 

RIGHT(x4) 
e|-----------------|-----------------|-----------------|-----------------| 
B|-----------------|-----------------|-----------------|-----------------| 
G|-7---x-x-7---x-x-|-5---x-x-5---x-x-|-----------------|-----------------| 
D|-7---x-x-7---x-x-|-5---x-x-5---x-x-|-3-5-x-x-5-x-5-3-|-----------------| 
A|-5---x-x-5---x-x-|-3---x-x-3---x-x-|-3-5-x-x-5-x-5-3-|---0-3-5-5-3-0-0-| 
D|-----------------|-----------------|-3-5-x-x-5-x-5-3-|---0-3-5-5-3-0-0-| 

Bridge (1:57) 

PANNED 
e|-----------------|-----------------|-----------------|-----------------| 
B|-----------------|-----------------|-----------------|-----------------| 
G|-----------------|-----------------|-----------------|-----------------| 
D|-0-----------0-0-|-----------------|-3-----------3-3-|-----------------| 
A|-0-----------0-0-|-----------------|-3-----------3-3-|-----------------| 
D|-0-----------0-0-|-----------------|-3-----------3-3-|-----------------| 
                                                                            (x2) 
e|-----------------|-----------------|-----------------|-----------------| 
B|-----------------|-----------------|-3-------2-------|-0-------2-------| 
G|-----------------|-----------------|-2-------2-------|-2-------2-------| 
D|-5-----------5-5-|-----------------|-2-------2-------|-2-------2-------| 
A|-5-----------5-5-|-----------------|-0-------0-------|-0-------0-------| 
D|-5-----------5-5-|-----------------|-----------------|-----------------| 

PANNED 
e|-----------------|-----------------|-----------------|-----------------| 
B|-----------------|-----------------|-----------------|-----------------| 
G|-----------------|-----------------|-----------------|-----------------| 
D|-0-----------0-0-|-----------------|-3-----------3-3-|-----------------| 
A|-0-----------0-0-|-----------------|-3-----------3-3-|-----------------| 
D|-0-----------0-0-|-----------------|-3-----------3-3-|-----------------| 

e|-----------------|-----------------|-----------------|-----------------| 
B|-----------------|-----------------|-----------------|-----------------| 
G|-----------------|-----------------|-2-2-2-2-2-2-2-2-|-2---------------| 
D|-5-----------5-5-|-----------------|-2-2-2-2-2-2-2-2-|-2---------------| 
A|-5-----------5-5-|-----------------|-0-0-0-0-0-0-0-0-|-0---------------| 
D|-5-----------5-5-|-----------------|-----------------|-----------------| 

e|-----------------|-----------------|-----------------|-----------------| 
B|-----------------|-----------------|-----------------|-----------------| 
G|-2-2-2-2-2-2-2-2-|-2---------------|-2-2-2-2-2-2-2-2-|-----------------| 
D|-2-2-2-2-2-2-2-2-|-2---------------|-2-2-2-2-2-2-2-2-|---0-3-5-5-3-0-0-| 
A|-0-0-0-0-0-0-0-0-|-0---------------|-0-0-0-0-0-0-0-0-|-----------------| 
D|-----------------|-----------------|-----------------|-----------------| 

Solo (2:39) 

LEAD 
e|-----------------------------------------------------------------| 
B|-10--13--10--13--10--13--10--13--10--13--10--13--10--13--10--13--| 
G|-----------------------------------------------------------------| 
D|-----------------------------------------------------------------| 
A|-----------------------------------------------------------------| 
D|-----------------------------------------------------------------| 

PANNED 
e|-----------------------------------------------------------------| 
B|-----------------------------------------------------------------| 
G|-----------------------------------------------------------------| 
D|-0---------------------------------------------------------------| 
A|-0---------------------------------------------------------------| 
D|-0---------------------------------------------------------------| 

LEAD 
e|-----------------------------------------------------------------| 
B|-10--13--10--13--10--13--10--13--10--13--10--13--10--13--10--13--| 
G|-----------------------------------------------------------------| 
D|-----------------------------------------------------------------| 
A|-----------------------------------------------------------------| 
D|-----------------------------------------------------------------| 

                                   N-----------------------------| 
e|-----------------------------------------------------------------| 
B|-10--13--10--13--10--13--10--13--10--13--10--13--10--13--10--13--| 
G|-----------------------------------------------------------------| 
D|-----------------------------------------------------------------| 
A|-----------------------------------------------------------------| 
D|-----------------------------------------------------------------| 

LEAD 
e|-----------------------------------------------------------------| 
B|-9---12--9---11--8---11--7---10--7---8---6---8---6---8---6---8---| 
G|-----------------------------------------------------------------| 
D|-----------------------------------------------------------------| 
A|-----------------------------------------------------------------| 
G|-----------------------------------------------------------------| 

PANNED 
e|-----------------------------------------------------------------| 
B|-----------------------------------------------------------------| 
G|-----------------------------------------------------------------| 
D|-----------------------------------------------------------------| 
A|---------0-------3-------5-------5-------3-------0-------0-------| 
D|---------0-------3-------5-------5-------3-------0-------0-------| 

LEAD 
e|-------|------------|-----------------------|--------------------------------------------------------------| 
B|-------|------------|-------------13--------|--------------------------------------------------------------| 
G|-12b---|-----12pb---|---------12pb---12pbr--|-12-10-12------12------10-12---10-----------------------------| 
D|-------|------------|-----------------------|---------------------------------------12------10------12-----| 
A|-------|------------|-----------------------|--------------------------------------------------------------| 
G|-------|------------|-----------------------|--------------------------------------------------------------| 

PANNED 
e|-------|------------|-----------------------|--------------------------------------------------------------| 
B|-------|------------|-----------------------|--------------------------------------------------------------| 
G|-------|------------|-----------------------|--------------------------------------------------------------| 
D|-0-----|------------|-----------------------|--------------------------------------------------------------| 
A|-0-----|------------|-----------------------|-------0-------3-------5-------5-------3-------0-------0------| 
D|-0-----|------------|-----------------------|-------0-------3-------5-------5-------3-------0-------0------| 

LEAD 
e|--------------------------------------------------|------------------------------------------------| 
e|--------------------------------------------------|------------------------------------------------| 
G|--------------------------10----------10-10-10-10-|-10----------10-10-10-10-10----------10---------| 
D|--------------------------------------------------|-------------------------------------------12---| 
A|--------------------------------------------------|------------------------------------------------| 
G|--------------------------------------------------|------------------------------------------------| 

LEFT 
e|--------------------------------------------------|------------------------------------------------| 
B|--------------------------------------------------|------------------------------------------------| 
G|-7------------------------7-----------------------|-5-----------------------5----------------------| 
D|-5------------------------5-----------------------|-3-----------------------3----------------------| 
A|-5------------------------5-----------------------|-3-----------------------3----------------------| 
D|--------------------------------------------------|------------------------------------------------| 

RIGHT 
e|--------------------------------------------------|-------------------------------------------------| 
B|--------------------------------------------------|-------------------------------------------------| 
G|-7------------x-----x-----7-----------x-----x-----|-5-----------x-----x------5----------x-----x-----| 
D|-7------------x-----x-----7-----------x-----x-----|-5-----------x-----x------5----------x-----x-----| 
A|-5------------x-----x-----5-----------x-----x-----|-3-----------x-----x------3----------x-----x-----| 
D|--------------------------------------------------|-------------------------------------------------| 

LEAD 
e|-------------------------------------------------|---13b-----------| 
B|-------------------------------------------------|-10--------------| 
G|-------------------------10----10----------10----|-----------------| 
D|-------------------------10-12-10----12----10----|-----------------| 
A|-------------10----12-------12-------12----------|-----------------| 
D|-------------------------------------------------|-----------------| 

LEFT 
e|-------------------------------------------------|-----------------| 
B|-------------------------------------------------|-----------------| 
G|-------------------------------------------------|-----------------| 
D|-3-----5-----5-----5-----5-----5-----5-----3-----|-----------------| 
A|-3-----5-----5-----5-----5-----5-----5-----3-----|---0-3-5-5-3-0-0-| 
D|-3-----5-----5-----5-----5-----5-----5-----3-----|---0-3-5-5-3-0-0-| 

RIGHT 
e|-------------------------------------------------|-----------------| 
B|-------------------------------------------------|-----------------| 
G|-------------------------------------------------|-----------------| 
D|-3-----5-----x-----x-----5-----x-----5-----3-----|-----------------| 
A|-3-----5-----x-----x-----5-----x-----5-----3-----|---0-3-5-5-3-0-0-| 
D|-3-----5-----x-----x-----5-----x-----5-----3-----|---0-3-5-5-3-0-0-| 

LEAD 
e|---------13pb-13b-13b-|-13pbr-13b--13b-13b-| 
B|----------------------|--------------------| 
G|----------------------|--------------------| 
D|----------------------|--------------------| 
A|----------------------|--------------------| 
D|----------------------|--------------------| 

LEFT 
e|----------------------|--------------------| 
B|----------------------|--------------------| 
G|-7---------7----------|-5--------5---------| 
D|-7---------7----------|-5--------5---------| 
A|-5---------5----------|-3--------3---------| 
D|----------------------|--------------------| 

RIGHT                                                                       
e|----------------------|--------------------| 
B|----------------------|--------------------| 
G|-7-----x-x-7------x-x-|-5----x-x-5-----x-x-| 
D|-7-----x-x-7------x-x-|-5----x-x-5-----x-x-| 
A|-5-----x-x-5------x-x-|-3----x-x-3-----x-x-| 
D|----------------------|--------------------| 

LEAD 
e|-------13----13----------------------------------|-------------------------| 
B|----------15-------15----13----15----13----------|-------12~12~---10-12~10-| 
G|-------------------------------------------14----|-12-10-12~12~---10-12~10-| 
D|-------------------------------------------------|-------------------------| 
A|-------------------------------------------------|-------------------------| 
D|-------------------------------------------------|-------------------------| 

LEFT 
e|-------------------------------------------------|-------------------------| 
B|-------------------------------------------------|-------------------------| 
G|-------------------------------------------------|-------------------------| 
D|-3-----5-----5-----5-----5-----5-----5-----3-----|-------------------------| 
A|-3-----5-----5-----5-----5-----5-----5-----3-----|----0--3--5--5--3--0--0--| 
D|-3-----5-----5-----5-----5-----5-----5-----3-----|----0--3--5--5--3--0--0--| 

RIGHT 
e|-------------------------------------------------|-------------------------| 
B|-------------------------------------------------|-------------------------| 
G|-------------------------------------------------|-------------------------| 
D|-3-----5-----x-----x-----5-----x-----5-----3-----|-------------------------| 
A|-3-----5-----x-----x-----5-----x-----5-----3-----|----0--3--5--5--3--0--0--| 
D|-3-----5-----x-----x-----5-----x-----5-----3-----|----0--3--5--5--3--0--0--| 

LEAD 
e|-------------------------------------------------|-------------------------------------------------| 
B|-10----------------10----------------10----------|-------10----------------10----------------10----| 
G|-10----------------10----------------10----------|-------10----------------10----------------10----| 
D|-------12-10-------------12-10-------------12-10-|-------------12-10-------------12-10-------------| 
A|-------------12----------------12----------------|-12----------------12----------------12----------| 
D|-------------------------------------------------|-------------------------------------------------| 

LEFT 
e|-------------------------------------------------|-------------------------------------------------| 
B|-------------------------------------------------|-------------------------------------------------| 
G|-7-----------------------7-----------------------|-5-----------------------5-----------------------| 
D|-7-----------------------7-----------------------|-5-----------------------5-----------------------| 
A|-5-----------------------5-----------------------|-3-----------------------3-----------------------| 
D|-------------------------------------------------|-------------------------------------------------| 

RIGHT 
e|-------------------------------------------------|-------------------------------------------------| 
B|-------------------------------------------------|-------------------------------------------------| 
G|-7-----------x-----x-----7-----------x-----x-----|-5-----------x-----x-----5-----------x-----x-----| 
D|-7-----------x-----x-----7-----------x-----x-----|-5-----------x-----x-----5-----------x-----x-----| 
A|-5-----------x-----x-----5-----------x-----x-----|-3-----------x-----x-----3-----------x-----x-----| 
D|-------------------------------------------------|-------------------------------------------------| 

LEAD 
e|-------------------------------------------------|-------------------13----| 
B|-------------10----------------10----------------|-10----------10----13----| 
G|-------------10----------------10----------------|-10-12-10-------10----14-| 
D|-12-10-------------12-10-------------12-10-------|----------12-------------| 
A|-------12----------------12----------------12----|-------------------------| 
D|-------------------------------------------------|-------------------------| 

LEFT 
e|-------------------------------------------------|-------------------------| 
B|-------------------------------------------------|-------------------------| 
G|-------------------------------------------------|-------------------------| 
D|-3-----5-----5-----5-----5-----5-----5-----3-----|-------------------------| 
A|-3-----5-----5-----5-----5-----5-----5-----3-----|----0--3--5--5--3--0--0--| 
D|-3-----5-----5-----5-----5-----5-----5-----3-----|----0--3--5--5--3--0--0--| 

RIGHT 
e|-------------------------------------------------|-------------------------| 
B|-------------------------------------------------|-------------------------| 
G|-------------------------------------------------|-------------------------| 
D|-3-----5-----x-----x-----5-----x-----5-----3-----|-------------------------| 
A|-3-----5-----x-----x-----5-----x-----5-----3-----|----0--3--5--5--3--0--0--| 
D|-3-----5-----x-----x-----5-----x-----5-----3-----|----0--3--5--5--3--0--0--| 

LEAD 
e|-13----13----13-13-13----|-13----------13----13----13----------------------| 
B|-13----13----13-13-13----|-13----------13----13----13----------13----15-13-| 
G|----14----14----------14-|----14-------------------------14----------------| 
D|-------------------------|-------------------------------------------------| 
A|-------------------------|-------------------------------------------------| 
D|-------------------------|-------------------------------------------------| 

LEFT 
e|-------------------------|-------------------------------------------------| 
B|-------------------------|-------------------------------------------------| 
G|-7-----------7-----------|-5-----------------------5-----------------------| 
D|-7-----------7-----------|-5-----------------------5-----------------------| 
A|-5-----------5-----------|-3-----------------------3-----------------------| 
D|-------------------------|-------------------------------------------------| 

RIGHT 
e|-------------------------|-------------------------------------------------| 
B|-------------------------|-------------------------------------------------| 
G|-7-------x-x-7-------x-x-|-5-----------x-----x-----5-----------x-----x-----| 
D|-7-------x-x-7-------x-x-|-5-----------x-----x-----5-----------x-----x-----| 
A|-5-------x-x-5-------x-x-|-3-----------x-----x-----3-----------x-----x-----| 
D|-------------------------|-------------------------------------------------| 

LEAD 
e|-------------------------13-15-------------------|-------17----20----22~---| 
B|-------13----15-13-------------------------------|-------------------------| 
G|-14----------------14----------------------------|-------------------------| 
D|-------------------------------------------------|-------------------------| 
A|-------------------------------------------------|-------------------------| 
D|-------------------------------------------------|-------------------------| 

LEFT 
e|-------------------------------------------------|-------------------------| 
B|-------------------------------------------------|-------------------------| 
G|-------------------------------------------------|-------------------------| 
D|-3-----5-----5-----5-----5-----5-----5-----3-----|-------------------------| 
A|-3-----5-----5-----5-----5-----5-----5-----3-----|----0--3--5--5--3--0--0--| 
D|-3-----5-----5-----5-----5-----5-----5-----3-----|----0--3--5--5--3--0--0--| 

RIGHT 
e|-------------------------------------------------|-------------------------| 
B|-------------------------------------------------|-------------------------| 
G|-------------------------------------------------|-------------------------| 
D|-3-----5-----x-----x-----5-----x-----5-----3-----|-------------------------| 
A|-3-----5-----x-----x-----5-----x-----5-----3-----|----0--3--5--5--3--0--0--| 
D|-3-----5-----x-----x-----5-----x-----5-----3-----|----0--3--5--5--3--0--0--| 

Chorus (3:15) 
LEAD TREMOLO LAST NOTE 
LEFT 
e|-----------------|-----------------|-----------------|-----------------| 
B|-----------------|-----------------|-----------------|-----------------| 
G|-7-------7-------|-5-------5-------|-----------------|-----------------| 
D|-7-------7-------|-5-------5-------|-3-5-5-5-5-5-5-3-|-----------------| 
A|-5-------5-------|-3-------3-------|-3-5-5-5-5-5-5-3-|---0-3-5-5-3-0-0-| 
D|-----------------|-----------------|-3-5-5-5-5-5-5-3-|---0-3-5-5-3-0-0-| 

RIGHT                                                                     x4 
e|-----------------|-----------------|-----------------|-----------------| 
B|-----------------|-----------------|-----------------|-----------------| 
G|-7---x-x-7---x-x-|-5---x-x-5---x-x-|-----------------|-----------------| 
D|-7---x-x-7---x-x-|-5---x-x-5---x-x-|-3-5-x-x-5-x-5-3-|-----------------| 
A|-5---x-x-5---x-x-|-3---x-x-3---x-x-|-3-5-x-x-5-x-5-3-|---0-3-5-5-3-0-0-| 
D|-----------------|-----------------|-3-5-x-x-5-x-5-3-|---0-3-5-5-3-0-0-| 


Pre Verse (3:39) 
LEFT 
e|-----------------|-5-5-------------|-----------------|-----------------| 
B|-----------------|-5-5-------------|-----------------|-----------------| 
G|-7-------7-------|-5-5-------------|-----------------|-----------------| 
D|-7-------7-------|-5-5-------------|-----------------|-----------------| 
A|-5-------5-------|-5-5-------------|-----------------|-----------------| 
D|-----------------|-----------------|-----------------|-----------------| 

RIGHT               CLEAN 
e|---------3-2-----|-----------------|---------0-------|-----------------| 
B|-----3-------3---|-------1-----3---|-----3-----3---0-|-------3-----3---| 
G|---2---2-------2-|-----2-----0---0-|---0---0-----0---|-----0-----0---0-| 
D|-0---------------|-0-3-----3-------|-2---------------|-2/3-----3-------| 
A|-----------------|-----------------|-----------------|-----------------| 
D|-----------------|-----------------|-----------------|-----------------| 


Verse (4:45) 
LEFT - TACET 
RIGHT 
e|-----2---0-------|-----------------|---------0-------|-----------------| 
B|-------------3---|-------1-----3---|-----3-----3---0-|-------3-----3---| 
G|---2---2---2---2-|-----2-----0---0-|---0---0-----0---|-----0-----0---0-| 
D|-0---------------|-0-3-----3-------|-2---------------|-2/3-----3-------| 
A|-----------------|-----------------|-----------------|-----------------| 
D|-----------------|-----------------|-----------------|-----------------| 

LEFT CLEAN 
e|-----2---0-------|---0---0---------|-----------------|-------0---------| 
B|-----3---3---3---|---1-1-1-----1---|-------------0---|-----1-----1---3-| 
G|-----2---2---2---|---2-2-2---0---0-|-0-------0---0---|---2---------2---| 
D|-0---------------|-3---3-----------|-2-------2---2---|-3---------------| 
A|-----------------|-----------------|-2-------2-------|-----------------| 
D|-----------------|-----------------|-2---------------|-----------------| 

RIGHT 
e|-----2---0-------|-----------------|---------0-------|-----------------| 
B|-------------3---|-------1-----3---|-----3-----3---0-|-------3-----3---| 
G|---2---2---2---2-|-----2-----0---0-|---0---0-----0---|-----0-----0---0-| 
D|-0---------------|-0-3-----3-------|-2---------------|-2/3-----3-------| 
A|-----------------|-----------------|-----------------|-----------------| 
D|-----------------|-----------------|-----------------|-----------------| 

LEFT 
e|-----2---0-------|---0---0---------|-----------------|-----------------| 
B|-----3---3---3---|---1-1-1-----1---|-5---------------|-----------------| 
G|-----2---2---2---|---2-2-2---0---0-|-4---------------|-----------------| 
D|-0---------------|-3---3-----------|-2---------------|-----------------| 
A|-----------------|-----------------|-2---------------|---0-3-5-5-3-0-0-| 
D|-----------------|-----------------|-2---------------|---0-3-5-5-3-0-0-| 

RIGHT                                                    +FUZZ 
e|-----2---0-------|-----------------|-----------------|-----------------| 
B|-------------3---|-------1-----3---|-5-5-5-5-5-5-5-5-|-----------------| 
G|---2---2---2---2-|-----2-----0---0-|-4-4-4-4-4-4-4-4-|-----------------| 
D|-0---------------|-0-3-----3-------|-2-2-2-2-2-2-2-2-|---0-3-5-5-3-0-0-| 
A|-----------------|-----------------|-2-2-2-2-2-2-2-2-|-----------------| 
D|-----------------|-----------------|-2-2-2-2-2-2-2-2-|-----------------| 

Outro Chorus 

PANNED FUZZ 
e|-----------------|-----------------|-----------------|-----------------| 
B|-----------------|-----------------|-----------------|-----------------| 
G|-----------------|-----------------|-----------------|-----------------| 
D|-----------------|-----------------|-----------------|-----------------| x4 
A|-----------------|-----------------|-----------------|---0-3-5-5-3-0-0-| 
D|-----------------|-----------------|-----------------|---0-3-5-5-3-0-0-| 

Outro (4:03) 

LEAD 
e|-------13-13-15-15----13-|----13-15\---------------|-----------------|-----------------| 
B|-------13-13-15-15----13-|----13-15\---------------|-----------------|-----------------| 
G|-------------------------|-------------------------|-----------------|-----------------| 
D|-------------------------|-------------------------|-----------------|-----------------|  
A|-------------------------|-------------------------|-----------------|---0-3-5-5-3-0-0-| 
D|-------------------------|-------------------------|-----------------|---0-3-5-5-3-0-0-| 

PANNED                                                                                     x2 
e|-------------------------|-------------------------|-----------------|-----------------| 
B|-------------------------|-------------------------|-----------------|-----------------| 
G|-------------------------|-------------------------|-----------------|-----------------| 
D|-------------------------|-------------------------|-----------------|-----------------| 
A|-------------------------|-------------------------|-----------------|---0-3-5-5-3-0-0-| 
D|-------------------------|-------------------------|-----------------|---0-3-5-5-3-0-0-| 

LEAD 
  PM--------------------------------------------------------------------| 
e|-----------------|-----------------|-----------------|-----------------| 
B|-----------------|-----------------|-----------------|-----------------| 
G|-----------------|-----------------|-----------------|-----------------| 
D|-----------------|-----------------|-----------------|-----------------| 
A|-----------------|-----------------|-----------------|-----------------| 
D|-0-0-0-0-0-0-0-0-|-0-0-0-0-0-0-0-0-|-0-0-0-0-0-0-0-0-|-0-0-0-0-0-0-0-0-| 

PANNED                                                                    x2 
e|-----------------|-----------------|-----------------|-----------------| 
B|-----------------|-----------------|-----------------|-----------------| 
G|-----------------|-----------------|-----------------|-----------------| 
D|-----------------|-----------------|-----------------|-----------------| 
A|-----------------|-----------------|-----------------|---0-3-5-5-3-0-0-| 
D|-----------------|-----------------|-----------------|---0-3-5-5-3-0-0-| 

Outro Fade Out (4:51) 
LEAD 
  PM--------------| 
e|-----------------| 
B|-----------------| 
G|-----------------| 
D|-----------------| Repeat until fade 
A|-----------------| 
D|-0-0-0-0-0-0-0-0-| 

PANNED FUZZ 
e|-----------------| 
B|-----------------| 
G|-----------------| 
D|-----------------|  
A|-0---------------| Hold  
D|-0---------------| 

************************************ 

| /    Slide up 
| x    Dead note 
| b    Bend 
| pb   Pre-bend 
| pbr  Pre-bend release 
| ~    Vibrato 
| \    Slide down 

************************************ 
  

top 5 | jefferson starship
top diversos
Outras músicas do artista letras do(a) Jefferson Starship
4.
Sara
Top cifras »Top artistas »
Petaxxon Comunicação Online
Cifras.com.br - Melhor e mais completo site de cifras e tablaturas do Brasil
Mais de 1 milhão de acordes de músicas cadastradas desde 2003
As informações contidas no nosso site são colaborações de seus usuários e podem conter erros, sendo assim, não nos responsabilizamos sobre nenhuma destas.
close
menos
mais
close
Cor dos acordes:

Cor da letra:

 

save
close
close
 
redimensionar