Cifras e Tablaturas
Jerome Kern

Jerome Kern

All The Things You Are

Compositor : (Jerome Kerny / Oscar Hammerstein ll)

Cifras Cancelar Versão de Impressão
cifras

Jerome Kern - All The Things You Are

fixar na tela  
Exibindo: vídeo-aula ver clipes redimensionar

Tom:

  
Theme: 

e|-----------------9--------------------------------8--------| 
B|--9---------------------6---9--8------------------------6--| 
G|--------8---8---------6-6--------------6---6----------5----| 
D|-------6----6-------8-----8-----------8----8--------6------| 
A|----8-----8------------------------6-----6-----------------| 
E|-----------------------------------------------------------| 

e|-------------------------3-4-3h4p3------------------------| 
B|-8--6--------------6----------------6-5----5----6---7---8-| 
G|----------5--5-----4-----------------------4----5---5---7-| 
D|-------3--3--3-----6-----------------------2----3---7---5-| 
A|6---4-------4---0--5--------------------3-------5---6---7-| 
E|----------------------------------------------------------| 

e|----------------------------------------------------------------| 
B|------------------9----------------------------------8--------8-| 
G|----8---------8------------8--8------7----------7-------------7-| 
D|---------8----8---------6-----6------------6----6----------5----| 
A|---------------------8------8---------------------------6-------| 
E|------8----8----------------------------6----6------------------| 

e|--------------------------------------------------------| 
B|--------------------------3-4-3h4p3---------------------| 
G|---7--5------5-------5--------------5-4----4---5---6--7-| 
D|-----------5----5----5---------------------4---5---5--5-| 
A|-6------------------------------------------------------| 
E|---------4----4------5------------------3------5---6--7-| 

e|-----------10--10--------------------------------------------------| 
B|-------------------------13---13-------13------13---12-------------| 
G|-------12------------12------------11--------------------------11--| 
D|---12-------------------------------------------------------9------| 
A|---------------12-----------12---11-------11-------------10--------| 
E|-------------------------------------------------------------------| 

e|-----------------------------------------------------| 
B|---12---12-------12---13--12--12---10-10-----8---8---| 
G|--------11---11---------------9----9--9------8---8---| 
D|--------9---------------------10---10-10-----7---7---| 
A|-10--10-10--------------------9----------0-----------| 
E|-------------------------------------------7---------| 

e|----------------------------------------------| 
B|----10--9---------9------10------11------12---| 
G|------------------8------9-------9-------11---| 
D|------------------6------7-------11-----------| 
A|-----------------7----0--9-------10------11---| 
E|----------------------------------------------| 

Coda: 

e|---11---9---------------------------------------| 
B|---9------9-----------------9------8----6-----6-| 
G|---9--9---9-----8---8--7h8---------8----8-----6-| 
D|---9------------8------------------7----7-----6-| 
A|---9--------0-----------------------------------| 
E|----------------8----------------8----8-------6-| 

e|--------------------6--8---13\---------3----4-| 
B|---------6--8--9-----------------------4----4-| 
G|----8----------------------------------3----3-| 
D|----------------------------------------------| 
A|---------------------------------------4----3-| 
E|----------------------------------------------| 
  

top 5 | jerome kern
top jazz
Outras músicas do artista letras do(a) Jerome Kern
Top cifras »Top artistas »
Petaxxon Comunicação Online
Cifras.com.br - Melhor e mais completo site de cifras e tablaturas do Brasil
Mais de 1 milhão de acordes de músicas cadastradas desde 2003
As informações contidas no nosso site são colaborações de seus usuários e podem conter erros, sendo assim, não nos responsabilizamos sobre nenhuma destas.
close
menos
mais
close
Cor dos acordes:

Cor da letra:

 

save
close
close
 
redimensionar