Cifras e Tablaturas
Jesus Culture

Jesus Culture

God With Us - (live)

Cifras Cancelar Versão de Impressão
cifras

Jesus Culture - God With Us - (live)

fixar na tela  
Exibindo: vídeo-aula ver clipes redimensionar

Tom:

  
INTRO 
****** 
e|---------|---------|---------------------------| 
B|---------|---------|---------------------------| 
G|---------|---------|-s-----------------------s-| 
D|-9-9-9-9-|-6-6-6-6-|-\13-13-13-13-13-13-13-13\-| 
A|---------|---------|---------------------------| 
E|---------|---------|---------------------------|X2 


------------------------------ 
00:13 
verse 1 
******** 
  You are matchless................... 
e|---------|---------|---------------------------|---------|---------|--------------------------| 
B|---------|---------|---------------------------|---------|---------|--------------------------| 
G|---------|---------|-s-----------------------s-|---------|---------|-s------------------------| 
D|-9-9-9-9-|-6-6-6-6-|-\13-13-13-13-13-13-13-13\-|-9-9-9-9-|-6-6-6-6-|-\13-13-13-13-11-11-11-11-| 
A|---------|---------|---------------------------|---------|---------|--------------------------| 
E|---------|---------|---------------------------|---------|---------|--------------------------| 


e|---------|---------|--------------------------|---------|---------|-----------------| 
B|---------|---------|--------------------------|---------|---------|-----------------| 
G|---------|---------|-s------------------------|---------|---------|-s---------------| 
D|-9-9-9-9-|-6-6-6-6-|-\13-13-13-13-11-11-11-11-|-9-9-9-9-|-6-6-6-6-|-\13-13-13-13-13-| 
A|---------|---------|--------------------------|---------|---------|-----------------| 
E|---------|---------|--------------------------|---------|---------|-----------------| 


------------------------------ 
00:39 
verse 2 
******** 
  You're the healer...................... 
e|---------|---------|---------------------------|---------|---------|--------------------------| 
B|---------|---------|---------------------------|---------|---------|--------------------------| 
G|---------|---------|-s-----------------------s-|---------|---------|-s------------------------| 
D|-9-9-9-9-|-6-6-6-6-|-\13-13-13-13-13-13-13-13\-|-9-9-9-9-|-6-6-6-6-|-\13-13-13-13-11-11-11-11-| 
A|---------|---------|---------------------------|---------|---------|--------------------------| 
E|---------|---------|---------------------------|---------|---------|--------------------------| 


e|---------|---------|--------------------------|---------|---------|-------------------------| 
B|---------|---------|--------------------------|---------|---------|-------------------------| 
G|---------|---------|-s------------------------|---------|---------|-s-----------------------| 
D|-9-9-9-9-|-6-6-6-6-|-\13-13-13-13-11-11-11-11-|-9-9-9-9-|-6-6-6-6-|-\13-13-13-13-13-13-13-13| 
A|---------|---------|--------------------------|---------|---------|-------------------------| 
E|---------|---------|--------------------------|---------|---------|-------------------------| 

  For eternity we will sing........... 
e|---------|---------|-----------------------| 
B|---------|---------|-----------------------| 
G|---------|---------|-s---------------------| 
D|-9-9-9-9-|-6-6-6-6-|-\13-13-13-13-13-13-13-| 
A|---------|---------|-----------------------| 
E|---------|---------|-----------------------| 


------------------------------ 
01:11 
Chorus 
******* 
  God with us.......... 
e|-----------------|-----------------|-----------------|------------s------| 
B|-----------------|-----------------|-----------------|-9-9-9-9-9-9\12-12-| 
G|-8-8-8-8-8-8-6-6-|-8-8-8-8-8-8-9-9-|-8-8-8-8-8-8-6-6-|-------------------| 
D|-----------------|-----------------|-----------------|-------------------| 
A|-----------------|-----------------|-----------------|-------------------| 
E|-----------------|-----------------|-----------------|-------------------| 

  God with us.......... 
e|-----------------|-----------------|-----------------|------| 
B|-----------------|-----------------|-----------------|-9~~~-| 
G|-8-8-8-8-8-8-6-6-|-8-8-8-8-8-8-9-9-|-8-8-8-8-8-8-6-6-|------| 
D|-----------------|-----------------|-----------------|------| 
A|-----------------|-----------------|-----------------|------| 
E|-----------------|-----------------|-----------------|------| 


------------------------------ 
01:37 
BREAK 
****** 
e|---------|---------|---------------------------| 
B|---------|---------|---------------------------| 
G|---------|---------|-s-----------------------s-| 
D|-9-9-9-9-|-6-6-6-6-|-\13-13-13-13-13-13-13-13\-| 
A|---------|---------|---------------------------| 
E|---------|---------|---------------------------|X2 


------------------------------ 
01:50 
verse 3 
******** 
  Your heart, it moves............. 
e|---------|---------|---------------------------|---------|---------|--------------------------| 
B|---------|---------|---------------------------|---------|---------|--------------------------| 
G|---------|---------|-s-----------------------s-|---------|---------|-s------------------------| 
D|-9-9-9-9-|-6-6-6-6-|-\13-13-13-13-13-13-13-13\-|-9-9-9-9-|-6-6-6-6-|-\13-13-13-13-11-11-11-11-| 
A|---------|---------|---------------------------|---------|---------|--------------------------| 
E|---------|---------|---------------------------|---------|---------|--------------------------| 


e|---------|---------|--------------------------|---------|---------|-------------------------| 
B|---------|---------|--------------------------|---------|---------|-------------------------| 
G|---------|---------|-s------------------------|---------|---------|-s-----------------------| 
D|-9-9-9-9-|-6-6-6-6-|-\13-13-13-13-11-11-11-11-|-9-9-9-9-|-6-6-6-6-|-\13-13-13-13-13-13-13-13| 
A|---------|---------|--------------------------|---------|---------|-------------------------| 
E|---------|---------|--------------------------|---------|---------|-------------------------| 


------------------------------ 
02:16 
Chorus 
******* 
  God with us.......... 
e|-----------------|-----------------|-----------------|------------s------| 
B|-----------------|-----------------|-----------------|-9-9-9-9-9-9\12-12-| 
G|-8-8-8-8-8-8-6-6-|-8-8-8-8-8-8-9-9-|-8-8-8-8-8-8-6-6-|-------------------| 
D|-----------------|-----------------|-----------------|-------------------| 
A|-----------------|-----------------|-----------------|-------------------| 
E|-----------------|-----------------|-----------------|-------------------| 

  God with us.......... 
e|-----------------|-----------------|-----------------|------| 
B|-----------------|-----------------|-----------------|-9~~~-| 
G|-8-8-8-8-8-8-6-6-|-8-8-8-8-8-8-9-9-|-8-8-8-8-8-8-6-6-|------| 
D|-----------------|-----------------|-----------------|------| 
A|-----------------|-----------------|-----------------|------| 
E|-----------------|-----------------|-----------------|------| 

  No one can stand 
e|-----------------|-----------------|-----------------|------------s--------| 
B|-----------------|-----------------|-----------------|-9-9-9-9-9-9\12-12~~-| 
G|-8-8-8-8-8-8-6-6-|-8-8-8-8-8-8-9-9-|-8-8-8-8-8-8-6-6-|---------------------| 
D|-----------------|-----------------|-----------------|---------------------| 
A|-----------------|-----------------|-----------------|---------------------| 
E|-----------------|-----------------|-----------------|---------------------| 


------------------------------ 
BRIDGE 
******* 
                    03:40 
  And You lifted me up                                 
e|------------------|-----------------|-------------------------| 
B|------------------|-9-9-9-9-9-9-9-9-|-11-11-11-11-11-11-11-11-| 
G|------------------|-----------------|-------------------------| 
D|------------------|-----------------|-------------------------| 
A|------------------|-----------------|-------------------------| 
E|------------------|-----------------|-------------------------| 

03:47 
e|------------s-------s------------------------| 
B|-12-12-12-12\7-7-7-7\16-16-16-16-14-14-14-14-| 
G|---------------------------------------------| 
D|---------------------------------------------| 
A|---------------------------------------------| 
E|---------------------------------------------|X3 

04:06                                                                                                     s 
e|-------11-------|-------11----14-|-------11-------|-------11----14--16-|-------11-------|-------11----14\-| 
B|-12-12----14-12-|-12-12----14----|-12-12----14-12-|-12-12----14--------|-12-12----14-12-|-12-12----14-----| 
G|----------------|----------------|----------------|--------------------|----------------|-----------------| 
D|----------------|----------------|----------------|--------------------|----------------|-----------------| 
A|----------------|----------------|----------------|--------------------|----------------|-----------------| 
E|----------------|----------------|----------------|--------------------|----------------|-----------------| 


------------------------------ 
04:26 
Chorus 
******* 
  God with us.......... 
e|-----------------|-----------------|-----------------|------------s------| 
B|-----------------|-----------------|-----------------|-9-9-9-9-9-9\12-12-| 
G|-8-8-8-8-8-8-6-6-|-8-8-8-8-8-8-9-9-|-8-8-8-8-8-8-6-6-|-------------------| 
D|-----------------|-----------------|-----------------|-------------------| 
A|-----------------|-----------------|-----------------|-------------------| 
E|-----------------|-----------------|-----------------|-------------------|X4 


/ = Slide 


ENJOY............ 
  

top 5 | jesus culture
top gospel
Outras músicas do artista letras do(a) Jesus Culture
Top cifras »Top artistas »
Petaxxon Comunicação Online
Cifras.com.br - Melhor e mais completo site de cifras e tablaturas do Brasil
Mais de 1 milhão de acordes de músicas cadastradas desde 2003
As informações contidas no nosso site são colaborações de seus usuários e podem conter erros, sendo assim, não nos responsabilizamos sobre nenhuma destas.
close
menos
mais
close
Cor dos acordes:

Cor da letra:

 

save
close
close
 
redimensionar