Cifras e Tablaturas
Cifras Cancelar Versão de Impressão
cifras

Jimmie's Chicken Shack - Happiness

fixar na tela  
Exibindo: vídeo-aula ver clipes redimensionar
  
Dropped D 

E|------------------------------------------| 
B|------------------------------------------| 
G|------------------------------------------| 
D|-4---4---4-4---x-x---4---4---4-4---x-x----| 
A|-2---2---2-2---x-x---2---2---2-2---x-x----| 
D|-2---2---2-2---x-x---2---2---2-2---x-x----| 

E|------------------------------------------| 
B|------------------------------------------| 
G|------------------------------------------| 
D|-7---7---7-7---7-7---9---9--x--5-5--------| 
A|-5---5---5-5---5-5---7---7--x--3-3--------| 
D|-5---5---5-5---5-5---7---7--x--3-3--------| 

0:08 
E|-------------------------------------------------------------------| 
B|-------------------------------------------------------------------| 
G|----------0---------------0--------------0-------------------------| 
D|-------4----4-----------4---4----------7---7--------9-/ 14--14-14--| (x4) 
A|----2----------2-----2--------2-----5--------5----7----------------| 
D|-2---------------2--------------/5-------------/7------------------| 

0:40 
E|------------------------------------------| 
B|------------------------------------------| 
G|------------------------------------------| 
D|-4---4---4-4---x-x---4---4---4-4---x-x----| 
A|-2---2---2-2---x-x---2---2---2-2---x-x----| 
D|-2---2---2-2---x-x---2---2---2-2---x-x----| 

E|------------------------------------------| 
B|------------------------------------------| 
G|------------------------------------------| 
D|-7---7---7-7---7-7---9---9--x--14-14------|  
A|-5---5---5-5---5-5---7---7--x--12-12------| 
D|-5---5---5-5---5-5---7---7--x--12-12------| 

0:56 
E|-------------------------------------------------------------------| 
B|-------------------------------------------------------------------| 
G|----------0---------------0--------------0-------------------------| 
D|-------4----4-----------4---4----------7---7--------9-/ 14--14--14-| (x4) 
A|----2----------2-----2--------2-----5--------5----7----------------| 
D|-2---------------2--------------/5-------------/7------------------| 

1:27 
E|------------------------------------------|------------------------------------------| 
B|------------------------------------------|------------------------------------------| 
G|------------------------------------------|------------------------------------------| 
D|-4---4---4-4---x-x---4---4---4-4---x-x----|-7---7---7-7---7-7---9---9--x--14-14------| (x3) 
A|-2---2---2-2---x-x---2---2---2-2---x-x----|-5---5---5-5---5-5---7---7--x--12-12------| 
D|-2---2---2-2---x-x---2---2---2-2---x-x----|-5---5---5-5---5-5---7---7--x--12-12------| 

E|------------------------------------------|------------------------------------------| 
B|------------------------------------------|------------------------------------------| 
G|------------------------------------------|------------------------------------------| 
D|-4---4---4-4---x-x---4---4---4-4---x-x----|-7---7---7-7---7-7---9---9--x--5-5--------| 
A|-2---2---2-2---x-x---2---2---2-2---x-x----|-5---5---5-5---5-5---7---7--x--3-3--------| 
D|-2---2---2-2---x-x---2---2---2-2---x-x----|-5---5---5-5---5-5---7---7--x--3-3--------| 

1:59 
E|------------------------------------------| 
B|------------------------------------------| 
G|------------------------------------------| 
D|-4---4---4-4---------4---4---4-4----------| (x2) 
A|-2---2---2-2---------2---2---2-2----------| 
D|-2---2---2-2---------2---2---2-2----------| 

2:06 
E|--------------------------------------------------------------------------------| 
B|--------------------------------------------------------------------------------| 
G|-------------------------------------2-2-2-2--------------2-2-2-2---------------| 
D|-4---4---4-4---4-4-4-4---4---4---4-4----------4---4---4-4-----------4---4---4-4-| 
A|-2---2---2-2-------------2---2---2-2----------2---2---2-2-----------2---2---2-2-| 
D|-2---2---2-2-------------2---2---2-2----------2---2---2-2-----------2---2---2-2-| 

2:13 
E|------------------------------------------| 
B|------------------------------------------| 
G|------------------------------------------| 
D|-7---7---7-7---7-7---9---9--x--14-14------| 
A|-5---5---5-5---5-5---7---7--x--12-12------| 
D|-5---5---5-5---5-5---7---7--x--12-12------| 

2:17 
E|----------------------------|----------------------------| 
B|----------------------------|----------------------------| 
G|----------------------------|----------------------------| 
D|--------7-7-7---------5-5-5-|--------7-7-7---------5-5-5-| (x2) 
A|-2-2-2---------2-2-2--------|-2-2-2---------2-2-2--------| 
D|-2-2-2---------2-2-2--------|-2-2-2---------2-2-2--------| 

2:25 
E|----------------------------------------------------| 
B|----------------------------------------------------| 
G|----------------------------------------------------| 
D|--------4-0---------4-0---------4-0---------4-0-----| (x4) 
A|-2-2-2-------------------2-2-2----------------------| 
D|-2-2-2--------0-2--------2-2-2--------0-2-----------| 
   . . .        . .        . . .              
   
2:40 
E|------------------------------------------| 
B|------------------------------------------| 
G|------------------------------------------| 
D|-7---7---7-7---7-7---9---9--x--14-14------| 
A|-5---5---5-5---5-5---7---7--x--12-12------| 
D|-5---5---5-5---5-5---7---7--x--12-12------| 

E|----------------------------|----------------------------| 
B|----------------------------|----------------------------| 
G|----------------------------|----------------------------| 
D|--------7-7-7---------5-5-5-|--------7-7-7---------5-5-5-| (x2) 
A|-2-2-2---------2-2-2--------|-2-2-2---------2-2-2--------| 
D|-2-2-2---------2-2-2--------|-2-2-2---------2-2-2--------| 

2:48 
E|------------------------------------------| 
B|------------------------------------------| 
G|------------------------------------------| 
D|-7---7---7-7---7-7---9---9--x--14-14------| 
A|-5---5---5-5---5-5---7---7--x--12-12------| 
D|-5---5---5-5---5-5---7---7--x--12-12------| 

E|----------------------------|----------------------------| 
B|----------------------------|----------------------------| 
G|----------------------------|----------------------------| 
D|--------7-7-7---------5-5-5-|--------7-7-7---------5-5-5-| 
A|-2-2-2---------2-2-2--------|-2-2-2---------2-2-2--------| 
D|-2-2-2---------2-2-2--------|-2-2-2---------2-2-2--------| 

2:56 
E|------------------------------------------| 
B|------------------------------------------| 
G|------------------------------------------| 
D|-7---7---7-7---7-7---9---9--x--14-14------| 
A|-5---5---5-5---5-5---7---7--x--12-12------| 
D|-5---5---5-5---5-5---7---7--x--12-12------| 

3:00 
E|----------------------------------------------------| 
B|----------------------------------------------------| 
G|----------------------------------------------------| 
D|--------4-0---------4-0---------4-0---------4-0-----| 
A|-2-2-2-------------------2-2-2----------------------| 
D|-2-2-2--------0-2--------2-2-2--------0-2-----------| 
   . . .        . .        . . .              
   
E|------------------------------------------| 
B|------------------------------------------| 
G|------------------------------------------| 
D|-7---7---7-7---7-7---9---9--x--14-14------| 
A|-5---5---5-5---5-5---7---7--x--12-12------| 
D|-5---5---5-5---5-5---7---7--x--12-12------| 

3:08 
E|------------------------------------------| 
B|------------------------------------------| 
G|------------------------------------------| 
D|-4---4---4-4---------4---4---4-4----------| (x2) 
A|-2---2---2-2---------2---2---2-2----------| 
D|-2---2---2-2---------2---2---2-2----------| 

E|----------------------------------------------|----------------------------------------------| 
B|----------------------------------------------|----------------------------------------------| 
G|--------------------------------------2-2-2-2-|---------------2-2-2-2------------------------| 
D|-4---4---4-4---4-4-4-4---4---4---4-4----------|-4---4---4-4-------------4---4---4-4----------|  
A|-2---2---2-2-------------2---2---2-2----------|-2---2---2-2-------------2---2---2-2----------| 
D|-2---2---2-2-------------2---2---2-2----------|-2---2---2-2-------------2---2---2-2----------| 


************************************ 

| x  Dead note 
| /  Slide up 
| .  Staccato 

************************************ 
  

top 5 | jimmie's chicken shack
top rock'n roll
Outras músicas do artista letras do(a) Jimmie's Chicken Shack
Top cifras »Top artistas »
Petaxxon Comunicação Online
Cifras.com.br - Melhor e mais completo site de cifras e tablaturas do Brasil
Mais de 1 milhão de acordes de músicas cadastradas desde 2003
As informações contidas no nosso site são colaborações de seus usuários e podem conter erros, sendo assim, não nos responsabilizamos sobre nenhuma destas.
close
menos
mais
close
Cor dos acordes:

Cor da letra:

 

save
close
close
 
redimensionar