Cifras e Tablaturas
João Pernambuco

João Pernambuco

Brasileirinho Tablatura Verificada

Compositor : (Pernambuco)

Cifras Cancelar Versão de Impressão
cifras

João Pernambuco - Brasileirinho

fixar na tela  
Exibindo: vídeo-aula ver clipes redimensionar

Tom:

  
Part A:  

e|------------0------------0--------------0-------------0-----|  
B|---------------13-------------------------12-------------12-|  
G|--------11------------11---13-------12------------12--------|  
D|-----12------------12-----------12-------------12-----------|  
A|------------------------------------------------------------|  
E|------------------------------------------------------------|  
D|------------------------------------------------------------|  

e|------------------------------------------------------------|  
B|---------0----------0-----------0----------0----------------|  
G|-----------8-----------8----------7-----------7-------------|  
D|------7----------7------------6---------6-------------------|  
A|---9-----------9-----------8----------8---------------------|  
E|------------------------------------------------------------|  
D|------------------------------------------------------------|  

e|-------------------0-3--2p0------------------0-----------0-----------0-----|  
B|----------------2-----------3-1p0--------------10----------10-----------10-|  
G|-----------0-3--------------------2-0-----12----------12----------12-------|  
D|---------2-----------------------------11----------11----------11----------|  
A|----0h3--------------------------------------------------------------------|  
E|---------------------------------------------------------------------------|  
D|---------------------------------------------------------------------------|  

e|-------0-----------0----------0----------0---------0----------0------|  
B|---------10----------10---------13---------13--------12---------12---|  
G|----11----------11---------11---------11---------12--------12--------|  
D|-10---------10----------12---------12---------12--------12-----------|  
A|---------------------------------------------------------------------|  
E|---------------------------------------------------------------------|  
D|---------------------------------------------------------------------|  

e|------------------------------------------------|  
B|--------0----------0------------0----------0----|  
G|----------8-----------8-----------7-----------7-|  
D|-----7----------7------------6----------6-------|  
A|---9----------9-----------8-----------8---------|  
E|------------------------------------------------|  
D|------------------------------------------------|  

e|----------------0-3--2p0------------------------------------------|  
B|-------------2-----------3-1p0------------------------------------|  
G|---------0-3-------------------2p0---------------------------12hn-|  
D|-------2---------------------------4-2p0-----0----------12hn------|  
A|---0h3-----------------------------------3-2---2p0----------------|  
E|----------------------------------------------------3-------------|  
D|------------------------------------------------------------------|  

Bridge:  

e|-----------------------|  
B|-----------------------|  
G|-----------------------|  
D|-----------------------|  
A|---2-1h2-3-2p0---------|  
E|----------------3-2-0--|  
D|-----------------------|  

Part B:  

e|----------------------|-----0-------0-----------------------|  
B|----------------------|-------8-------8-------0---------0---|  
G|----------------------|---9-------9-------------8---------8-|  
D|----------------------|---------9-----------7---------7-----|  
A|---2-1h2-3-2p0--------|------------------9---------9--------|  
E|----------------3-2-0-|-------------------------------------|  
D|----------------------|-------------------------------------|  

e|-------------------------------------------------------------------|  
B|------0--------0---------0---------0-----------------0-----1p0---0-|  
G|--------7--------7---------6---------6---------2-1/2---2p0-----3---|  
D|----6--------6---------5---------5-----------2---------------------|  
A|--8--------8---------7---------7---------0h3-----------------------|  
E|-------------------------------------------------------------------|  
D|-------------------------------------------------------------------|  

e|---0-------------0---------0------------|  
B|-----0-------------2---------2------0---|  
G|-------2p0-----3---------3------------5-|  
D|-------------4---------2----------4-----|  
A|--------------------------------6-------|  
E|----------------------------------------|  
D|----------------------------------------|  

e|---------------------------0-------0-----------------------|  
B|-----------------------------8-------8-------0---------0---|  
G|-------------------------9-------9-------------8---------8-|  
D|-------------------------------9-----------7---------7-----|  
A|--2-1h2-3-2p0---------------------------9---------9--------|  
E|---------------3-2-0---------------------------------------|  
D|-----------------------------------------------------------|  

e|-----------------------------------------------------------------|  
B|------0--------0---------0---------0-----------------0---1p0---0-|  
G|--------7--------7---------6---------6---------2-1/2---2-----3---|  
D|----6--------6---------5---------5-----------2-------------------|  
A|--8--------8---------7---------7---------0h3---------------------|  
E|-----------------------------------------------------------------|  
D|-----------------------------------------------------------------|  

e|--0-------------------------0-----0-----------------12hn-|  
B|----0--------------0------7-------------------------12hn-|  
G|------2p0-------7----8--------8--------------------------|  
D|--------------9-----------------------------12hn---------|  
A|---------------------------------------------------------|  
E|-------------------------------------0-------------------|  
D|---------------------------------------------------------|  

  

top 5 | joão pernambuco
top mpb
Outras músicas do artista letras do(a) João Pernambuco
Top cifras »Top artistas »
Petaxxon Comunicação Online
Cifras.com.br - Melhor e mais completo site de cifras e tablaturas do Brasil
Mais de 1 milhão de acordes de músicas cadastradas desde 2003
As informações contidas no nosso site são colaborações de seus usuários e podem conter erros, sendo assim, não nos responsabilizamos sobre nenhuma destas.
close
menos
mais
close
Cor dos acordes:

Cor da letra:

 

save
close
close
 
redimensionar