Cifras e Tablaturas
Joe Satriani

Joe Satriani

Star Spangled Banner

Cifras Cancelar Versão de Impressão
cifras

Joe Satriani - Star Spangled Banner

fixar na tela  
Exibindo: vídeo-aula ver clipes redimensionar

Tom:

  Here is my tab of Joe Satriani's version of Star Spangled Banner. 

e|--------------------------------------------------------------------------------------| 
B|--------------------------------------------------------------------------------------| 
G|-----------------2--------------------------------------------------------------------| 
D|-----------------2--------------------------------------------------------------------| 
A|-----------------0--------------------------------------------------------------------| 
E|-----4/19/2---------------------------------------------------------------------------| 

e|--------------------------------------------------------------------------------------| 
B|--------------------5v--6/8--7-5-------------6/8-7-5p4-2/4-5-5------------------------| 
G|-----4v----------4---------------1/3-4v--4-4-------------------4----------------------| 
D|---------6----6--------------------------------------------------6--------------------| 
A|------------7------------------------------------------------------7------------------| 
E|--------------------------------------------------------------------------------------| 

e|---------------------------------------------------------------------------------------| 
B|----------------5v--6/8--7-5-------------6/8-7-5p4-2/4-5-5-----------------------------| 
G|-----4v-------4--------------1/3-4v--4-4-------------------4---------------------------| 
D|--------6---6------------------------------------------------6-------------------------| 
A|----------7----------------------------------------------------6/7v--------------------| 
E|---------------------------------------------------------------------------------------| 

e|------------------------------------------------------------------------------------------| 
B|----7/8-8-8-8-9-9/11-11v---9-7/6-7-7/9-9v-9/10-9-7-5---4-5--------------------------------| 
G|-----------------------------------------------------6-----5-1/3-4v--5v-5v-5v-4-2v-2v-2v--| 
D|--------------------------------------------------------------------5---------------------| 
A|------------------------------------------------------------------------------------------| 
E|------------------------------------------------------------------------------------------| 

e|----------------------------------------------------------------------| 
B|-------------------------------5--5-5/7-9-10-12v-------4/8-9-10/11-7--| 
G|----7-9h10p9-7-5v--4v------0-0----------------------------------------| 
D|----------------------------------------------------------------------| 
A|----------------------------------------------------------------------| 
E|----------------------------------------------------------------------| 

e|----------------| 
B|----------------| 
G|-------------2--| 
D|-------------2--| 
A|-------------0--| 
E|---21/4---------| 



************************************ 

| /  Slide up 
| p  Pull-off 
| h  Hammer-on 
| v   
Vibrato 

************************************ 
  

top 5 | joe satriani
top rock'n roll
Outras músicas do artista letras do(a) Joe Satriani
Top cifras »Top artistas »
Petaxxon Comunicação Online
Cifras.com.br - Melhor e mais completo site de cifras e tablaturas do Brasil
Mais de 1 milhão de acordes de músicas cadastradas desde 2003
As informações contidas no nosso site são colaborações de seus usuários e podem conter erros, sendo assim, não nos responsabilizamos sobre nenhuma destas.
close
menos
mais
close
Cor dos acordes:

Cor da letra:

 

save
close
close
 
redimensionar