Cifras e Tablaturas
Johann Sebastian Bach

Johann Sebastian Bach

Violin Sonata No 1 Bwv 1001 Adagio

Cifras Cancelar Versão de Impressão
cifras

Johann Sebastian Bach - Violin Sonata No 1 Bwv 1001 Adagio

fixar na tela  
Exibindo: vídeo-aula ver clipes redimensionar

Tom:

  
Intro 
   Arp                 Arp                  Arp       TR           Arp 
e|--3--------------------------------------|-2---------------------3-----------------| 
B|-----6-4-3------------1---------------1--|-1--3-1---1-3----1-3--------------3-4----| 
G|--3--------5-3-2-3-0--0-------------2--3-|--------3------3-----2-3--0-2-3-5-----3--| 
D|--0---------------------4---2-0-2-4------|-0---------------------0--------------5--| 
A|----------------------0------------------|-----------------------------------------| 
E|--3--------------------------------------|-----------------------3-----------------| 

             Arp   Arp                            TR     TR        Arp 
e|------------6---------------------------------------|-3-2----5------------5------| 
B|-----4-3-3----8--8--------------------------3-1---1-|-3----------------3/7--8----| 
G|-3-2--------7----7--8-7-5---5-------------------3---|----------5--3------------3-| 
D|-3----------0-------------8---7-8--4-5--0-1---------|-0--------0--0------------3-| 
A|-----------------6----------------------------------|----------------------------| 
E|----------------------------------------------------|-------------3------------3-| 
    
  Arp       TR                                                                                
e|----6--5-3-1--0-1----------6-3--3----|----5---5--3----------3-0------3-|--3-1-3-0-1-------1-0--3-5-6-0-1-3-| 
B|------------------2--6-3-4---------4-|-4----------6-5-3---3----3-2-----|----------------------6------------| 
G|-2----------------0--3----------3----|---6-------------------------2---|-----------2--2--0-----------------| 
D|-2-------------------5-------------5-|-5----3-----------2--------------|-0--------------0------------------| 
A|-4-----------------------------------|---------------------------------|-----------3--1--------------------| 
E|-------------------------------------|---------------------------------|-----------------------------------| 

   Arp                Arp                    TR                  TR      Arp 
e|--------------------------------0-1-3-0---------|------------------------------2-------------| 
B|-3-2-------------3--3--2-0--2-3---------2--2-3--|-3----3-----------------4h3p4---4-3---------| 
G|-0----------------------------------------------|--------5-3-2-3--2-3--5-------------5-2-5-2-| 
D|--------------------2---------------------------|---0------------------4---------------------| 
A|-0---5-3--5-2-3-----0---------------------------|----------------------0---------------------| 
E|------------------------------------------------|--------------------------------------------| 

   Arp                               Arp               Arp                  Arp 
e|-3--------3----------------------------------------|---------------------------------1-3-4----4-| 
B|---------3--6-4-3------------------0---------------|-0--3--3--1--4-3-3-4--4p3----3-4------------| 
G|-2h3--0-3---------5-3-2-0---0-2------0-1-0---------|-----------------0-------3-5-----------3----| 
D|-0------------------------4---5p4--3-------3-1-3-0-|-0-----1-----3--------3-----------------0---| 
A|------------------------------5--------------------|-3------------------------------------------| 
E|-3---------------------------------3---------------|----------------------4---------------------| 
                             Arp 
                               TR                        Arp                       TR 
e|---4-3---------------4-3-1---------|--------------4-3--3--4-3-2-3----------------------| 
B|-------2-------2---1-1-----4--3--4-|-4---------3-6----------------3-4--------4---------| 
G|-----------0-3-------3-------------|----------4--------5--------------4-5------7-5-4-5-| 
D|-1-------1-----------------3-------|-4-----3-6----------------------------4-5----------| 
A|---------------------------1-------|-0--2-5------------6-------------------------------| 
E|-----------------4-----------------|---------------------------------------------------| 

                                   TR                    Arp              Arp 
e|------------------------------1------------------1---|-1--4-3-1-3-1--------------3-4----| 
B|-1-----------------------1---1---0-1-------0-1-3---4-|-0------------4-3-4--3-4-6------4-| 
G|---3-1-0----------------0------------2-0-2-----------|------------------0-5-------------| 
D|---------3-1-0---------1---0-------------------------|-0------------------------------6-| 
A|---------------3-2-3--3------------------------------|------------------3-------------3-| 
E|---------------------3-------------------------------|-3--------------------------------| 
  
   Arp        Arp  Arp               TR           
e|-----4-3-3--3----------------1-3---1-3---1-| 
B|-4p3--------4-0--1----------1----4-----4---| 
G|------------0----1---3-1-0-1---------------| 
D|-3---------------1-------------------------| 
A|-----------------4-------------------------| 
E|-6----------3------------------------------| 

   Arp     Arp             ArpArp 
e|-3----1--1-------1-4-3---3--5-------------------------------------4-2| 
B|-1-0--3--3---0-3-------4-4--4---------------------------------4-1-1-2| 
G|---------0--0------------0----7-5-7-5-3-5-2-3-2-0-0------3-0-1-------| 
D|-0--------------------------4--------------------4-0----1------------| 
A|---------2-3-------------3---------------------------1-3-------------| 
E|-3----------------------------------------------------3--------------| 

   Arp 
e|-2-3-4-2---------------------------------|-----------------------------------| 
B|---------3---3-1-------------1---------1-|-1---1-----------------------0-1-4-| 
G|-2---------------3-2-3-0---0---2-0-------|---3---2-3---------------0-1-------| 
D|-0---------------------------------4-0---|---------------------0-1-----------| 
A|-----------1-------------0---------------|-------------0-3-1-3---------------| 
E|-----------------------------------------|-----------3-----------------------| 

   Arp              Arp              TR       TR        Arp 
e|-3--2-6--5-3-2-3--3--3-----------3-5-6--3-4-2-3--3-|--3--| 
B|---------------------------3-5-7-------------------|-----| 
G|-2-------------------2-3-5-------------------------|--3--| 
D|-0----------------2--0-----------------------------|--0--| 
A|-3----------------2--------------------------------|-----| 
E|------------------4--------------------------------|--3--| 



************************************ 

| h   Hammer-on 
| p   Pull-off 
| /   Slide up 
| TR  Trill 
| Arp Arpeggiate 

************************************ 
  

top 5 | johann sebastian bach
top música clássica
Outras músicas do artista letras do(a) Johann Sebastian Bach
Top cifras »Top artistas »
Petaxxon Comunicação Online
Cifras.com.br - Melhor e mais completo site de cifras e tablaturas do Brasil
Mais de 1 milhão de acordes de músicas cadastradas desde 2003
As informações contidas no nosso site são colaborações de seus usuários e podem conter erros, sendo assim, não nos responsabilizamos sobre nenhuma destas.
close
menos
mais
close
Cor dos acordes:

Cor da letra:

 

save
close
close
 
redimensionar