Cifras e Tablaturas
Johanna Warren

Johanna Warren

My Storm

Cifras Cancelar Versão de Impressão
cifras

Johanna Warren - My Storm

fixar na tela  
Exibindo: vídeo-aula ver clipes redimensionar
  
Intro 

e |-------------------|-------------------|-----------------------|--------------------------| 
A |-------------------|-------------------|-----------------------|--------------------------| 
F#|-------------------|-------------------|-----------------------|--------------------------|
D |-------0--2--0-----|-------0--2--0-----|-------0--0h2p0--------|-------0--0h2p0-----------| 
A |----4-----------4--|----4-----------4--|----0------------4--0--|----0------------4--0-----| 
D |-4-----------------|-4-----------------|-0---------------------|-0------------------------| 

e |-------------------|-------------------|-----------------------|--------------------------| 
A |-------------------|-------------------|-----------------------|--------------------------| 
F#|-------------------|-------------------|-----------------------|--------------------------| 
D |-------0--2--0-----|-------0--2--0-----|-------0--0h2p0--------|-------0--0h2p0-----------| 
A |----4-----------4--|----4-----------4--|----0------------4--0--|----0------------4--0-----| 
D |-4-----------------|-4-----------------|-0---------------------|-0------------------------| 



verse 1 

e |-------------------|-------------------------| 
A |-------------------|-------------------------| 
F#|-------------------|-------------------------| 
D |-------0--2--0-----|---------0--0h2p0--------| 
A |----4-----------4--|------0------------4--0--| 
D |-4-----------------|---0---------------------| 

e |-------------------|-------------------------| 
A |-------------------|-------------------------| 
F#|-------------------|-------------------------| 
D |-------0--2--0-----|---------0--0h2p0--------| 
A |----4-----------4--|------0------------4--0--| 
D |-4-----------------|---0---------------------| 

e |-------------------|-------------------------| 
A |-------------------|-------------------------| 
F#|-------------------|-------------------------| 
D |-------0--2--0-----|---------0--0h2p0--------| 
A |----4-----------4--|------0------------4--0--| 
D |-4-----------------|---0---------------------| 

e |-----------------------|-----------------------| 
A |-----------------------|-----------------------| 
F#|-----------------------|-----------------------| 
D |-------0--0h2p0--------|-------0--0h2p0-----0--| 
A |----0------------4--0--|----0------------4-----| 
D |-0---------------------|-0---------------------| 




e |-------------------|-------------------------| 
A |-------------------|-------------------------| 
F#|-------------------|-------------------------| 
D |-------0--2--0-----|---------0--0h2p0--------| 
A |----4-----------4--|------0------------4--0--| 
D |-4-----------------|---0---------------------| 

e |-------------------|-------------------------| 
A |-------------------|-------------------------| 
F#|-------------------|-------------------------| 
D |-------0--2--0-----|---------0--0h2p0--------| 
A |----4-----------4--|------0------------4--0--| 
D |-4-----------------|---0---------------------| 

e |-------------------|-------------------------| 
A |-------------------|-------------------------| 
F#|-------------------|-------------------------| 
D |-------0--2--0-----|---------0--0h2p0--------| 
A |----4-----------4--|------0------------4--0--| 
D |-4-----------------|---0---------------------| 

e |-------------------|-------------------------| 
A |-------------------|-------------------------| 
F#|-------------------|-------------------------| 
D |-------0--2--0-----|---------0--0h2p0--------| 
A |----4-----------4--|------0------------4--0--| 
D |-4-----------------|---0---------------------| 

e |-----------------------|-----------------------| 
A |-----------------------|-----------------------| 
F#|-----------------------|-----------------------| 
D |-------0--0h2p0--------|-------0--0h2p0-----0--| 
A |----0------------4--0--|----0------------4-----| 
D |-0---------------------|-0---------------------| 



Chorus 

e |---------------------0-----|----------------------0------| 
A |----------------0----------|-----------------0-------0---| 
F#|-------------2----------2--|--------------2--------------| 
D |----------4----------------|----------2------------------| 
A |-------4-------------------|-------2---------------------| 
D |--4------------------------|--2--------------------------| 

e |-----------------------|-----------------------| 
A |-----------------------|-----------------------| 
F#|-----------------------|-----------------------| 
D |-------0--0h2p0--------|-------0--0h2p0-----0--| 
A |----0------------4--0--|----0------------4-----| 
D |-0---------------------|-0---------------------| 

e |---------------------0-----|----------------------0------| 
A |----------------0----------|-----------------0-------0---| 
F#|-------------2----------2--|--------------2--------------| 
D |----------4----------------|----------2------------------| 
A |-------4-------------------|-------2---------------------| 
D |--4------------------------|--2--------------------------| 

e |-----------------------|-----------------------| 
A |-----------------------|-----------------------| 
F#|-----------------------|-----------------------| 
D |-------0--0h2p0--------|-------0--0h2p0-----0--| 
A |----0------------4--0--|----0------------4-----| 
D |-0---------------------|-0---------------------| 

e |-----------------------|-----------------------| 
A |-----------------------|-----------------------| 
F#|-----------------------|-----------------------| 
D |-------0--0h2p0-----0--|-------0--0h2p0--------| 
A |----0------------4-----|----0------------4--0--| 
D |-0---------------------|-0---------------------| 


verse 2 

e |-------------------|-------------------------| 
A |-------------------|-------------------------| 
F#|-------------------|-------------------------| 
D |-------0--2--0-----|---------0--0h2p0--------| 
A |----4-----------4--|------0------------4--0--| 
D |-4-----------------|---0---------------------| 

e |-------------------|-------------------------| 
A |-------------------|-------------------------| 
F#|-------------------|-------------------------| 
D |-------0--2--0-----|---------0--0h2p0--------| 
A |----4-----------4--|------0------------4--0--| 
D |-4-----------------|---0---------------------| 

e |-------------------|-------------------------| 
A |-------------------|-------------------------| 
F#|-------------------|-------------------------| 
D |-------0--2--0-----|---------0--0h2p0--------| 
A |----4-----------4--|------0------------4--0--| 
D |-4-----------------|---0---------------------| 

e |----------------|--------------------------| 
A |----------------|--------------------------| 
F#|-----------2----|--0-----------------------| 
D |--------4-------|--0-----------------------| 
A |-----4----------|--0-----------------------| 
D |--4-------------|--0-----------------------| 



Interlude 

e |------------------------------|-----------------------|-------------------|-------------------| 
A |------------------------------|-----------------------|-------------------|-------------------| 
F#|--------10--10h12p10----------|-------5--5h7p5--------|-------3-----3-----|-------3-----3-----| 
D |----11----------------11------|----6------------6-----|----4-----------4--|----4-----------2--| 
A |-9------------------------12--|-7------------------7--|-5--------4--------|-2--------0--------| 
D |------------------------------|-----------------------|-------------------|-------------------| 

e |------------------------------|-----------------------|-------------------|-------------------| 
A |------------------------------|-----------------------|-------------------|-------------------| 
F#|--------10--10h12p10----------|-------5--5h7p5--------|----3--------3-----|-------3-----3-----| 
D |----11----------------11------|----6------------6-----|-------4--------4--|----4-----------2--| 
A |-9------------------------12--|-7------------------7--|-5--------4--------|-2--------0--------| 
D |------------------------------|-----------------------|-------------------|-------------------| 

e |-------------------|----------------------| 
A |-------------------|----------------------| 
F#|-------------------|----------------------| 
D |-------0--------0--|-------0--------0-----| 
A |----4--------4-----|----4--------4--------| 
D |-4--------4--------|-4--------4-----------| 



verse 3 

e |-------------------|-------------------------| 
A |-------------------|-------------------------| 
F#|-------------------|-------------------------| 
D |-------0--2--0-----|---------0--0h2p0--------| 
A |----4-----------4--|------0------------4--0--| 
D |-4-----------------|---0---------------------| 

e |-------------------|-------------------------| 
A |-------------------|-------------------------| 
F#|-------------------|-------------------------| 
D |-------0--2--0-----|---------0--0h2p0--------| 
A |----4-----------4--|------0------------4--0--| 
D |-4-----------------|---0---------------------| 

e |-------------------|-------------------------| 
A |-------------------|-------------------------| 
F#|-------------------|-------------------------| 
D |-------0--2--0-----|---------0--0h2p0--------| 
A |----4-----------4--|------0------------4--0--| 
D |-4-----------------|---0---------------------| 

e |----------------|--------------------------| 
A |----------------|--------------------------| 
F#|--0-------------|--0-----------------------| 
D |--4-------------|--0-----------------------| 
A |--4-------------|--0-----------------------| 
D |--4-------------|--0-----------------------| 



Chorus 

e |---------------------0-----|----------------------0------| 
A |----------------0----------|-----------------0-------0---| 
F#|-------------2----------2--|--------------2--------------| 
D |----------4----------------|----------2------------------| 
A |-------4-------------------|-------2---------------------| 
D |--4------------------------|--2--------------------------| 

e |-----------------------|-----------------------| 
A |-----------------------|-----------------------| 
F#|-----------------------|-----------------------| 
D |-------0--0h2p0--------|-------0--0h2p0-----0--| 
A |----0------------4--0--|----0------------4-----| 
D |-0---------------------|-0---------------------| 

e |---------------------0-----|----------------------0------| 
A |----------------0----------|-----------------0-------0---| 
F#|-------------2----------2--|--------------2--------------| 
D |----------4----------------|----------2------------------| 
A |-------4-------------------|-------2---------------------| 
D |--4------------------------|--2--------------------------| 

e |-----------------------|-----------------------| 
A |-----------------------|-----------------------| 
F#|-----------------------|-----------------------| 
D |-------0--0h2p0--------|-------0--0h2p0-----0--| 
A |----0------------4--0--|----0------------4-----| 
D |-0---------------------|-0---------------------| 



e |-------------------|---------------------------| 
A |-------------------|---------------------------| 
F#|----------2--------|----------2----------------| 
D |-------4-----4-----|-------2-----2-------------| 
A |----4-----------4--|----2-----------2----------| 
D |-4-----------------|-2-------------------------| 

e |-----------------------|-----------------------| 
A |-----------------------|-----------------------| 
F#|-----------------------|-----------------------| 
D |-------0--0h2p0--------|-------0--0h2p0-----0--| 
A |----0------------4--0--|----0------------4-----| 
D |-0---------------------|-0---------------------| 

e |-------------------|---------------------------| 
A |-------------------|---------------------------| 
F#|----------2--------|----------2----------------| 
D |-------4-----4-----|-------2-----2-------------| 
A |----4-----------4--|----2-----------2----------| 
D |-4-----------------|-2-------------------------| 

e |-----------------------|-----------------------| 
A |-----------------------|-----------------------| 
F#|-----------------------|-----------------------| 
D |-------0--0h2p0--------|-------0--0h2p0-----0--| 
A |----0------------4--0--|----0------------4-----| 
D |-0---------------------|-0---------------------| 




verse 4 

e |-------------------|-------------------------| 
A |-------------------|-------------------------| 
F#|-------------------|-------------------------| 
D |-------0--2--0-----|---------0--0h2p0--------| 
A |----4-----------4--|------0------------4--0--| 
D |-4-----------------|---0---------------------| 

e |-------------------|-------------------------| 
A |-------------------|-------------------------| 
F#|-------------------|-------------------------| 
D |-------0--2--0-----|---------0--0h2p0--------| 
A |----4-----------4--|------0------------4--0--| 
D |-4-----------------|---0---------------------| 

e |-------------------|-------------------------| 
A |-------------------|-------------------------| 
F#|-------------------|-------------------------| 
D |-------0--2--0-----|---------0--0h2p0--------| 
A |----4-----------4--|------0------------4--0--| 
D |-4-----------------|---0---------------------| 

e |-----------------|-------------------------| 
A |-----------------|-------------------------| 
F#|-----------2-----|--0----------------------| 
D |--------4--------|--0----------------------| 
A |-----4-----------|--0----------------------| 
D |--4--------------|--0----------------------| 



************************************ 

| h   Hammer-on 
| p   Pull-off 

************************************ 
  

top 5 | johanna warren
top rock'n roll
Outras músicas do artista letras do(a) Johanna Warren
Top cifras »Top artistas »
Petaxxon Comunicação Online
Cifras.com.br - Melhor e mais completo site de cifras e tablaturas do Brasil
Mais de 1 milhão de acordes de músicas cadastradas desde 2003
As informações contidas no nosso site são colaborações de seus usuários e podem conter erros, sendo assim, não nos responsabilizamos sobre nenhuma destas.
close
menos
mais
close
Cor dos acordes:

Cor da letra:

 

save
close
close
 
redimensionar