Cifras e Tablaturas
John Denver

John Denver

Christmas For Cowboys

Cifras Cancelar Versão de Impressão

John Denver - Christmas For Cowboys

Tom: F

  			 
 

Intro: 
   Fmaj7   C        G        Am 
e|------0-----------------------------| 
B|-1-------1--------0--1--3--1--------| 
G|-2-------------0--0--0--0--------2--| 
D|-3----------2-----------------2-----| 
A|---------3-----------------0--------| 
E|------------------3-----------------| 

   Fadd2   C        Gadd2       C 
e|------3---------------0-------------| 
B|-1-------1----------0---3-----1-----| 
G|---2-----------0--2-------2p0-------| 
D|-3----------2-------------------0-2-| 
A|---------3--------------------3-----| 
E|------------------3-----------------| 

verse 1: 
   Fmaj7   C        G         Am 
e|------0-----------------------------| } 
B|-1-------1--------0---------1-------| } 
G|---2-----------0------------------2-| } 
D|-3----------2--------0---------2----| } 
A|---------3------------------0-------| } 
E|------------------3-----4-----------| } 
                                        } 
   Fmaj7   C        G        Am         } x2 
e|------0-----------------------------| } 
B|-1-------1--------0--1--3--1--------| } 
G|-2-------------0--0--0--0--------2--| } 
D|-3----------2-----------------2-----| } 
A|---------3-----------------0--------| } 
E|------------------3-----------------| } 

   Fadd2   C        Gadd2       C 
e|------3---------------0-------------| 
B|-1-------1----------0---3-----1-----| 
G|---2-----------0--2-------2p0-------| 
D|-3----------2-------------------0-2-| 
A|---------3--------------------3-----| 
E|------------------3-----------------| 

verse 2: 
   Fmaj7   C        G         Am 
e|------0-----------------------------| } 
B|-1-------1--------0---------1-------| } 
G|---2-----------0------------------2-| } 
D|-3----------2--------0---------2----| } 
A|---------3------------------0-------| } 
E|------------------3-----4-----------| } 
                                        } 
   Fmaj7   C        G        Am         } x2 
e|------0-----------------------------| } 
B|-1-------1--------0--1--3--1--------| } 
G|-2-------------0--0--0--0--------2--| } 
D|-3----------2-----------------2-----| } 
A|---------3-----------------0--------| } 
E|------------------3-----------------| } 

   Fmaj7   C        G        Am          
e|------0-----------------------------|  
B|-1-------1--------0--1--3--1--------|  
G|-2-------------0--0--0--0--------2--|  
D|-3----------2-----------------2-----|  
A|---------3-----------------0--------|  
E|------------------3-----------------|  

   Fadd2   C        Gadd2       C 
e|------3---------------0-------------| 
B|-1-------1----------0---3-----1-----| 
G|---2-----------0--2-------2p0-------| 
D|-3----------2-------------------0-2-| 
A|---------3--------------------3-----| 
E|------------------3-----------------| 

verse 3: 
   Fmaj7   C        G        Am          
e|------0-----------------------------| } 
B|-1-------1--------0--1--3--1--------| } 
G|-2-------------0--0--0--0--------2--| } x2 
D|-3----------2-----------------2-----| } 
A|---------3-----------------0--------| } 
E|------------------3-----------------| } 

   Fmaj7   C        G        Am 
e|------0--------------0--1-----------| 
B|-1-------1--------3--------1--------| 
G|---2-----------0--0--------------2--| 
D|-3----------2-----------------2-----| 
A|---------3-----------------0--------| 
E|------------------3-----------------| 

   Fmaj7   C        G        Am          
e|------0-----------------------------|  
B|-1-------1--------0--1--3--1--------|  
G|-2-------------0--0--0--0--------2--|  
D|-3----------2-----------------2-----|  
A|---------3-----------------0--------|  
E|------------------3-----------------|  

   Fmaj7   C        G        Am          
e|------0-----------------------------|  
B|-1-------1--------0--1--3--1--------|  
G|-2-------------0--0--0--0--------2--|  
D|-3----------2-----------------2-----|  
A|---------3-----------------0--------|  
E|------------------3-----------------|  

   Fadd2   C        Gadd2       C 
e|------3---------------0-------------| 
B|-1-------1----------0---3-----1-----| 
G|---2-----------0--2-------2p0-------| 
D|-3----------2-------------------0-2-| 
A|---------3--------------------3-----| 
E|------------------3-----------------| 

   Fmaj7   C        G        Am 
e|------0--------------0--1--0--------| 
B|-1-------1--------3--------1--------| 
G|---2-----------0--0--------2-----2--| 
D|-3----------2--------------2--2-----| 
A|---------3-----------------0--------| 
E|------------------3-----------------| 

   Fadd2   C        Gadd2       C 
e|------3---------------0-------------| 
B|-1-------1----------0---3-----1-----| 
G|---2-----------0--2-------2p0-------| 
D|-3----------2-----------------------| 
A|---------3--------------------3-----| 
E|------------------3-----------------| 

verse 4: 
   Fmaj7   C        G        Am          
e|-0----------------------------------|  
B|-1-------1--------0--1--3--1--------|  
G|-2-------0--------0--0--0--------2--|  
D|-3-------2--------------------2-----|  
A|---------3-----------------0--------|  
E|------------------3-----------------|  

   Fmaj7   C        G        Am          
e|------0-----------------------------|  
B|-1-------1--------0--1--3--1--------|  
G|-2-------------0--0--0--0--------2--|  
D|-3----------2-----------------2-----|  
A|---------3-----------------0--------|  
E|------------------3-----------------|  

   Fmaj7   C        G        Am          
e|------0--------------------0--------|  
B|-1-------1--------0--1--3--1--------|  
G|-2-------------0--0--0--0--2-----2--|  
D|-3----------2--------------2--2-----|  
A|---------3-----------------0--------|  
E|------------------3-----------------|  

   Fadd9   C        G        Am          
e|------3-----------------------------|  
B|-1-------1--------0--1--3--1--------|  
G|-2----------------0--0--0--------2--|  
D|-3----------------------------2-----|  
A|---------3-----------------0--------|  
E|------------------3-----------------|  

   Fmaj7   C        G        Am 
e|------0-----------------------------| 
B|-1-------1--------0--1--3--1--------| 
G|-2-------------0--0--0--0--------2--| 
D|-3----------2-----------------2-----| 
A|---------3-----------------0--------| 
E|------------------3-----------------| 

   Fadd2   C        Gadd2      C 
e|------3---------------0--3---3------| 
B|-1-------1----------0--------1------| 
G|---2-----------0--2----------0------| 
D|-3----------2----------------2------| 
A|---------3-------------------3------| 
E|------------------3-----------------| 
    	
fixar
fixar inscrever-se

enviado porenviado por: terr_schmitz
cifra enviadaCorrigida por: sem correções
logo top cifrasComente
ico música do artistaMúsicas deste artista
ico curtiuCurtiu?
ico destaqueDestaque
Petaxxon Comunicação Online

Cifras.com.br - Melhor e mais completo site de cifras e tablaturas do Brasil Mais de 1 milhão de acordes de músicas cadastradas desde 2003
As informações contidas no nosso site são colaborações de seus usuários e podem conter erros, sendo assim, não nos responsabilizamos sobre nenhuma destas.

close
menos
mais
close
Cor dos acordes:

Cor da letra:

close
Alinhar acordes a direita Alinhar acordes a esquerda Alinhar acordes em baixo Alinhar acordes no topo
close
  Mostrar todos os acordes Esconder acordes muito fáceis Esconder acordes fáceis Esconder acordes intermediários
redimensionar
glossário