Cifras e Tablaturas
John Frusciante

John Frusciante

Ramparts

Cifras Cancelar Versão de Impressão
cifras

John Frusciante - Ramparts

fixar na tela  
Exibindo: vídeo-aula ver clipes redimensionar

Tom:

  
E|------------------|----------------------|-----------------|------------------| 
B|--11--------------|----------------------|-----------------|------------------| 
G|------------------|----------------------|-----------------|------------------| 
D|------------------|----------------------|-----------------|------------------| 
A|------------------|----------------------|-----------------|------------------| 
E|------------------|----------------------|-----------------|------------------| 

E|------------------|----------------------|-----------------|------------------| 
B|------------------|----------------------|-----------------|------------------| 
G|-------8--------6-|---------5h6-----5----|-----------------|------------------| 
D|------------------|----------------------|-8---------------|------------------| 
A|------------------|----------------------|-----------------|------------------| 
E|------------------|----------------------|-----------------|------------------| 

E|--13----13----13--|-11------11------11---|-9-----9-----9---|-9-------9-8------| 
B|------------------|----------------------|-----------------|------------11-9--| 
G|------------------|----------------------|-----------------|------------------| 
D|------------------|----------------------|-----------------|------------------| 
A|------------------|----------------------|-----------------|------------------| 
E|------------------|----------------------|-----------------|------------------| 

E|--6-----6---------|----------------------|-----------------|------------------| 
B|------6-------6---|-9-------9------------|-7-----7-------7-|-------7----------| 
G|----6-------6-----|-------8---------8----|-----6-------6---|-----6-------6----| 
D|--8-------8-----8-|----10--------10------|---8-------8-----|---8-------8------| 
A|------------------|-11--------11------11-|-9-------9-------|-9-------9-----9--| 
E|------------------|----------------------|-----------------|------------------| 


E|------------------|----------------------|-----------------|------------------| 
B|--11--------------|----------------------|-----------------|---------9-11b13--| 
G|------------------|----------------------|-----------------|-------10---------| 
D|------------------|----------------------|-----------------|------------------| 
A|------------------|----------------------|-----------------|------------------| 
E|------------------|----------------------|-----------------|------------------| 

E|------------------|----------------------|-----------------|------------------| 
B|------------------|----------------------|-----------------|------------------| 
G|-------8--------6-|----5--6---5----------|-----------------|------------------| 
D|------------------|---------------8--6---|-8-----8---------|------------8/11--| 
A|------------------|----------------------|-----------------|------------------| 
E|------------------|----------------------|-----------------|------------------| 

E|--13----13----13--|-11------11------11---|-9-----9-----9---|-9-------9-8------| 
B|------------------|----------------------|-----------------|------------11-9--| 
G|------------------|----------------------|-----------------|------------------| 
D|------------------|----------------------|-----------------|------------------| 
A|------------------|----------------------|-----------------|------------------| 
E|------------------|----------------------|-----------------|------------------| 

E|--6-----6---------|----------------------|-----------------|------------------| 
B|------6-------6---|-9-------9------------|-7-----7-------7-|-------7----------| 
G|----6-------6-----|-------8---------8----|-----6-------6---|-----6-------6----| 
D|--8-------8-----8-|----10--------10------|---8-------8-----|---8-------8------| 
A|------------------|-11--------11------11-|-9-------9-------|-9-------9-----9--| 
E|------------------|----------------------|-----------------|------------------| 


E|------------------|-----------------|-----------------|---------9-11b13-------| 
B|-r11--------------|-----------------|-----------------|-------11--------------| 
G|------------------|-----------------|-----------------|-----------------------| 
D|------------------|-----------------|-----------------|-----------------------| 
A|------------------|-----------------|-----------------|-----------------------| 
E|------------------|-----------------|-----------------|-----------------------| 

E|------------------|-----------------|-----------------|-----------------------| 
B|------------------|-----------------|-----------------|-----------------------| 
G|------------------|-----------------|-----------------|-----------------------| 
D|-\8---------------|-----------------|-----------------|---------6--8b10-------| 
A|------------------|-----------------|-----------------|-------8---------------| 
E|------------------|-----------------|-----------------|-----------------------| 

E|------------------|-13----13----13--|-----------------|-11----11----11--------| 
B|--11----11----11--|-----------------|-9-----9-----9---|-----------------------| 
G|------------------|-----------------|-----------------|-----------------------| 
D|------------------|-----------------|-----------------|-----------------------| 
A|------------------|-----------------|-----------------|-----------------------| 
E|------------------|-----------------|-----------------|-----------------------| 

E|------------------|-6-----6---------|-----------------|-4-----4---------------| 
B|--6-----6---------|-----6-------6---|-6-----6---------|-----4-------4---------| 
G|------8-------8---|---6-------6-----|-----6-------6---|---5-------5---5-------| 
D|----8-------8-----|-8-------8-----8-|---6-------6-----|-6-------6-------------| 
A|--6-------6-----6-|-----------------|-4-------4-----4-|-----------------------| 
E|------------------|-----------------|-----------------|-----------------------| 


E|-r11b13-----------|-----------------|-------16p13--13-|-----------------------| 
B|------------------|-----------------|-----------------|-----------------------| 
G|------------------|-----------------|-----------------|-----------------------| 
D|------------------|-----------------|-----------------|-----------------------| 
A|------------------|-----------------|-----------------|-----------------------| 
E|------------------|-----------------|-----------------|-----------------------| 

E|------------------|-----------------|-----------------|-----------------------| 
B|------------------|-----------------|-----------------|-----------------------| 
G|------------------|-----------------|-----------------|-----------------------| 
D|-r8---------------|-----------------|-8/10------------|-------b11r10----------| 
A|------------------|-----------------|-----------------|-----------------------| 
E|------------------|-----------------|-----------------|-----------------------| 

E|------------------|-13----13----13--|-----------------|-11-------11-----------| 
B|--11----11----11--|-----------------|-9-----9-----9---|-----------------------| 
G|------------------|-----------------|-----------------|-----------------------| 
D|------------------|-----------------|-----------------|-----------------------| 
A|------------------|-----------------|-----------------|-----------------------| 
E|------------------|-----------------|-----------------|-----------------------| 

E|------------------|-6-----6---------|-----------------|-4-----4---------------| 
B|--6-----6---------|-----6-------6---|-6-----6---------|-----4-------4---------| 
G|------8-------8---|---6-------6-----|-----6-------6---|---5-------5---5-------| 
D|----8-------8-----|-8-------8-----8-|---6-------6-----|-6-------6-------------| 
A|--6-------6-----6-|-----------------|-4-------4-----4-|-----------------------| 
E|------------------|-----------------|-----------------|-----------------------| 


E|--20r18-----------|----------------------|-----------------|------18--16-14---| 
B|------------------|----------------------|-----------------|------------------| 
G|------------------|----------------------|-----------------|------------------| 
D|------------------|----------------------|-----------------|------------------| 
A|------------------|----------------------|-----------------|------------------| 
E|------------------|----------------------|-----------------|------------------| 

E|------------------|----------------------|-----------------|------------------| 
B|----11---9--------|----11----9-----------|-----------------|------------------| 
G|-------------11---|-10-------------11----|-10-----^11------|-^11-----^11------| 
D|------------------|----------------------|-----------------|------------------| 
A|------------------|----------------------|-----------------|------------------| 
E|------------------|----------------------|-----------------|------------------| 

E|--13----13----13--|-11------11------13---|-9-----9-----9---|-9-------9-8------| 
B|------------------|----------------------|-----------------|------------11-9--| 
G|------------------|----------------------|-----------------|------------------| 
D|------------------|----------------------|-----------------|------------------| 
A|------------------|----------------------|-----------------|------------------| 
E|------------------|----------------------|-----------------|------------------| 

E|--6-----6---------|----------------------|-----------------|------------------| 
B|------6-------6---|-9-------9------------|-7-----7-------7-|-------7----------| 
G|----6-------6-----|-------8---------8----|-----6-------6---|-----6-------6----| 
D|--8-------8-----8-|----10--------10------|---8-------8-----|---8-------8------| 
A|------------------|-11--------11------11-|-9-------9-------|-9-------9-----9--| 
E|------------------|----------------------|-----------------|------------------| 


E|--13--------------|----------14-16-14p13\|9----------------|--------9b11-9-8--| 
B|------------------|----------------------|-----------------|------------------| 
G|------------------|----------------------|-----------------|------------------| 
D|------------------|----------------------|-----------------|------------------| 
A|------------------|----------------------|-----------------|------------------| 
E|------------------|----------------------|-----------------|------------------| 

E|------------------|----------------------|-----------------|------------------| 
B|----11---9--------|----11----9-----------|-----------------|------------------| 
G|-------------11---|-10-------------11----|-10-----^11--^11-|-^11--^11--^11----| 
D|------------------|----------------------|-----------------|------------------| 
A|------------------|----------------------|-----------------|------------------| 
E|------------------|----------------------|-----------------|------------------| 

E|--13----13----13--|-11------11------11---|-9-----9-----9---|-9-------9-8------| 
B|------------------|----------------------|-----------------|------------11-9--| 
G|------------------|----------------------|-----------------|------------------| 
D|------------------|----------------------|-----------------|------------------| 
A|------------------|----------------------|-----------------|------------------| 
E|------------------|----------------------|-----------------|------------------| 

E|--6-----6---------|----------------------|-----------------|------------------| 
B|------6-------6---|-9-------9------------|-7-----7-------7-|-------7----------| 
G|----6-------6-----|-------8---------8----|-----6-------6---|-----6-------6----| 
D|--8-------8-----8-|----10--------10------|---8-------8-----|---8-------8------| 
A|------------------|-11--------11------11-|-9-------9-------|-9-------9-----9--| 
E|------------------|----------------------|-----------------|------------------| 


E|--9---------------|-----------------|-----------------|-----------------------| 
B|------------------|-----------------|-9-9-9--9b11-9---|-------11--9-----------| 
G|------------------|-----------------|-----------------|--------------10-------| 
D|------------------|-----------------|-----------------|-----------------------| 
A|------------------|-----------------|-----------------|-----------------------| 
E|------------------|-----------------|-----------------|-----------------------| 

E|------------------|-----------------|-----------------|-----------------------| 
B|------------------|-----------------|-----------------|-----------------------| 
G|------6---------6-|-8--8p6p5-----6--|-----6-8b10--8-6-|-5-----6--6--6---------| 
D|--6h8---6h8-------|-----------8-----|-6h8-------------|-----------------------| 
A|------------------|-----------------|-----------------|-----------------------| 
E|------------------|-----------------|-----------------|-----------------------| 

E|------------------|-13----13----13--|-----------------|-11----11----11--------| 
B|--11----11----11--|-----------------|-9-----9-----9---|-----------------------| 
G|------------------|-----------------|-----------------|-----------------------| 
D|------------------|-----------------|-----------------|-----------------------| 
A|------------------|-----------------|-----------------|-----------------------| 
E|------------------|-----------------|-----------------|-----------------------| 

E|------------------|-6-----6---------|-----------------|-4-----4---------------| 
B|--6-----6---------|-----6-------6---|-6-----6---------|-----4-------4---------| 
G|------8-------8---|---6-------6-----|-----6-------6---|---5-------5---5-------| 
D|----8-------8-----|-8-------8-----8-|---6-------6-----|-6-------6-------------| 
A|--6-------6-----6-|-----------------|-4-------4-----4-|-----------------------| 
E|------------------|-----------------|-----------------|-----------------------| 


E|------------------|-----------------|-----------------|-----------------------| 
B|------------------|-----------------|-------9---7--6--|-7--6h7p6----6---------| 
G|--10--------------|-----------------|-----------------|----------4------------| 
D|------------------|-----------------|-----------------|-----------------------| 
A|------------------|-----------------|-----------------|-----------------------| 
E|------------------|-----------------|-----------------|-----------------------| 

E|------------------|-----------------|-----------------|-----------------------| 
B|------------------|-----------------|-----------------|-----------------------| 
G|------6-8b10--8-6-|-5h6-6----5h6-6--|-----6-8b10--8-6-|---11--10--11--10------| 
D|--6h8-------------|-----------------|-6h8-------------|-----------------------| 
A|------------------|-----------------|-----------------|-----------------------| 
E|------------------|-----------------|-----------------|-----------------------| 

E|------------------|-13----13----13--|-----------------|-11-------11-13--------| 
B|--11----11----11--|-----------------|-9-----9-----9---|-----------------------| 
G|------------------|-----------------|-----------------|-----------------------| 
D|------------------|-----------------|-----------------|-----------------------| 
A|------------------|-----------------|-----------------|-----------------------| 
E|------------------|-----------------|-----------------|-----------------------| 

E|------------------|-6-----6---------|-----------------|-4-----4---------------| 
B|--6-----6---------|-----6-------6---|-6-----6---------|-----4-------4---------| 
G|------8-------8---|---6-------6-----|-----6-------6---|---5-------5-----------| 
D|----8-------8-----|-8-------8-----8-|---6-------6-----|-6-------6-----6-------| 
A|--6-------6-----6-|-----------------|-4-------4-----4-|-----------------------| 
E|------------------|-----------------|-----------------|-----------------------| 


E|------------------|----------------------|-----------------|------------------| 
B|------------------|----------------------|-----------------|------------------| 
G|--8---6---6-------|----------------------|-6---------------|------------------| 
D|------------------|----------------------|----8---8--------|------------------| 
A|------------------|----------------------|-----------------|------------------| 
E|------------------|----------------------|-----------------|------------------| 

E|--9---------------|----------------------|-----------------|------------------| 
B|--13b14-----------|----------------------|-----------------|------------------| 
G|------------------|----------------------|-----------------|---------11--10---| 
D|------------------|----------------------|-----------------|------------------| 
A|------------------|----------------------|-----------------|------------------| 
E|------------------|----------------------|-----------------|------------------| 

E|--13----13----13--|-11------11------13---|-9-----9-----9---|-9-------9-8------| 
B|------------------|----------------------|-----------------|------------11-9--| 
G|------------------|----------------------|-----------------|------------------| 
D|------------------|----------------------|-----------------|------------------| 
A|------------------|----------------------|-----------------|------------------| 
E|------------------|----------------------|-----------------|------------------| 

E|--6-----6---------|----------------------|-----------------|------------------| 
B|------6-------6---|-9-------9------------|-7-----7-------7-|-------7----------| 
G|----6-------6-----|-------8---------8----|-----6-------6---|-----6-------6----| 
D|--8-------8-----8-|----10--------10------|---8-------8-----|---8-------8------| 
A|------------------|-11--------11------11-|-9-------9-------|-9-------9-----9--| 
E|------------------|----------------------|-----------------|------------------| 


E|------------------|----------------------|-----------------|------------------| 
B|------------------|----------------------|-----------------|------------------| 
G|--10r8p6----------|---------------6h8----|-6---------------|------------------| 
D|------------------|----------------------|---8-8---6h8-8---|-6h8-8---6h8-8----| 
A|------------------|----------------------|-----------------|------------------| 
E|------------------|----------------------|-----------------|------------------| 

E|--9---------------|----------------------|-11b13---18------|-18------18-------| 
B|--13b14-----------|----------------------|-----------------|------------------| 
G|------------------|----------------------|-----------------|------------------| 
D|------------------|----------------------|-----------------|------------------| 
A|------------------|----------------------|-----------------|------------------| 
E|------------------|----------------------|-----------------|------------------| 

E|--13----13----13--|-11------11------11---|-9-----9-----9---|-9-------9-8------| 
B|------------------|----------------------|-----------------|------------11-9--| 
G|------------------|----------------------|-----------------|------------------| 
D|------------------|----------------------|-----------------|------------------| 
A|------------------|----------------------|-----------------|------------------| 
E|------------------|----------------------|-----------------|------------------| 

E|--6-----6---------|----------------------|-----------------|------------------| 
B|------6-------6---|-9-------9------------|-7-----7-------7-|-------7----------| 
G|----6-------6-----|-------8---------8----|-----6-------6---|-----6-------6----| 
D|--8-------8-----8-|----10--------10------|---8-------8-----|---8-------8------| 
A|------------------|-11--------11------11-|-9-------9-------|-9-------9-----9--| 
E|------------------|----------------------|-----------------|------------------| 


E|------------------|-----------------|-----------------|-----------------------| 
B|------------------|-----------------|-----------------|-----------------------| 
G|------8-8b10-8-6--|-----------------|-----6-8b10---8--|-5h6-6---5h6-6---------| 
D|------------------|-----8--8--------|-6h8-------------|-----------------------| 
A|------------------|-----------------|-----------------|-----------------------| 
E|------------------|-----------------|-----------------|-----------------------| 

E|------------------|-----------------|-----------------|-----------------------| 
B|--16r14-13-14-16b-|-16--14-13-14----|-16b-16-14-13-14-|-14b-14-13-14-13-------| 
G|------------------|-----------------|-----------------|-----------------------| 
D|------------------|-----------------|-----------------|-----------------------| 
A|------------------|-----------------|-----------------|-----------------------| 
E|------------------|-----------------|-----------------|-----------------------| 

E|------------------|-13----13----13--|-----------------|-11------11-9--8-------| 
B|--11----11----11--|-----------------|-9-----9-----9---|-----------------------| 
G|------------------|-----------------|-----------------|-----------------------| 
D|------------------|-----------------|-----------------|-----------------------| 
A|------------------|-----------------|-----------------|-----------------------| 
E|------------------|-----------------|-----------------|-----------------------| 

E|------------------|-6-----6---------|-----------------|-4-----4---------------| 
B|--6-----6---------|-----6-------6---|-6-----6---------|-----4-------4---------| 
G|------8-------8---|---6-------6-----|-----6-------6---|---5-------5---5-------| 
D|----8-------8-----|-8-------8-----8-|---6-------6-----|-6-------6-------------| 
A|--6-------6-----6-|-----------------|-4-------4-----4-|-----------------------| 
E|------------------|-----------------|-----------------|-----------------------| 


E|------------------|-----------------|-----------------|-----------------------| 
B|------------------|-----------------|-----------------|-----------------------| 
G|------6-8b10--8---|-5h6-6-----------|-----6-8b10r8--6-|--5-6--5h6p5-----------| 
D|--8---------------|-----------------|-6h8-------------|-------------8---------| 
A|------------------|-----------------|-----------------|-----------------------| 
E|------------------|-----------------|-----------------|-----------------------| 

E|------------------|-----------------|-----------------|-16-13-----------------| 
B|--13--------------|-16b-16-14-13-14-|-13h14p13--------|-------16--14-13-------| 
G|-------15--15--15-|-----------------|---------15-13-15|-----------------------| 
D|------------------|-----------------|-----------------|-----------------------| 
A|------------------|-----------------|-----------------|-----------------------| 
E|------------------|-----------------|-----------------|-----------------------| 

E|------------------|-13----13----13--|-----------------|-11----11----11--------| 
B|--11----11----11--|-----------------|-9-----9-----9---|-----------------------| 
G|------------------|-----------------|-----------------|-----------------------| 
D|------------------|-----------------|-----------------|-----------------------| 
A|------------------|-----------------|-----------------|-----------------------| 
E|------------------|-----------------|-----------------|-----------------------| 

E|------------------|-6-----6---------|-----------------|-4-----4---------------| 
B|--6-----6---------|-----6-------6---|-6-----6---------|-----4-------4---------| 
G|------8-------8---|---6-------6-----|-----6-------6---|---5-------5---5-------| 
D|----8-------8-----|-8-------8-----8-|---6-------6-----|-6-------6-------------| 
A|--6-------6-----6-|-----------------|-4-------4-----4-|-----------------------| 
E|------------------|-----------------|-----------------|-----------------------| 


E|------------------| 
B|------------------| 
G|------------------| 
D|------------------| 
A|------------------| 
E|------------------| 

E|------------------| 
B|--14--------------| 
G|------------------| 
D|------------------| 
A|------------------| 
E|------------------| 

E|------------------| 
B|--11--------------| 
G|------------------| 
D|------------------| 
A|------------------| 
E|------------------| 

E|--6---------------| 
B|------------------| 
G|------------------| 
D|------------------| 
A|------------------| 
E|------------------| 
  

top 5 | john frusciante
top rock'n roll
Outras músicas do artista letras do(a) John Frusciante
Top cifras »Top artistas »
Petaxxon Comunicação Online
Cifras.com.br - Melhor e mais completo site de cifras e tablaturas do Brasil
Mais de 1 milhão de acordes de músicas cadastradas desde 2003
As informações contidas no nosso site são colaborações de seus usuários e podem conter erros, sendo assim, não nos responsabilizamos sobre nenhuma destas.
close
menos
mais
close
Cor dos acordes:

Cor da letra:

 

save
close
close
 
redimensionar