Cifras e Tablaturas
John Hartford

John Hartford

Presbyterian Guitar

Cifras Cancelar Versão de Impressão
cifras

John Hartford - Presbyterian Guitar

fixar na tela  
Exibindo: vídeo-aula ver clipes redimensionar

Tom:

  
e|2--------|-2--------|-0--------|-2--------|-3--------|-0--------|-2--------| 
B|3--------|-3--------|-3--------|-3--------|-3--------|-3--------|-3--------| 
G|2--------|-2--------|-2--------|-2--------|-2--------|-2--------|-2--------| 
D|----0----|-----0----|-----0----|-----0----|-----0----|-----0----|-----0----| 
A|---------|----------|----------|----------|----------|----------|----------| 
E|---------|----------|----------|----------|----------|----------|----------| 
  

e|-----0----|----------|-----0----|----------|-----0----|----------|----------| 
B|-3--------|-3--------|-3--------|-3--------|-3--------|----------|-3--------| 
G|-2--------|-----0----|----------|-----0----|----------|-----2----|-----2----| 
D|----------|----------|----------|----------|----------|-0--------|----------| 
A|----------|-2--------|----------|-3--------|----------|----------|----------| 
E|----------|----------|----------|----------|----------|----------|----------| 
  
  
e|-0--------|----------|-5--------|-----5----|-5--------|-----5----|-7--------| 
B|-----3----|-----3/7--|-7--------|-7--------|----------|----------|-7--------| 
G|----------|-2--------|-7---7----|----------|-6--------|-6--------|-5--------| 
D|----------|----------|----------|----------|-----0----|----------|-----0----| 
A|----------|----------|----------|----------|----------|----------|----------| 
E|----------|----------|----------|----------|----------|----------|----------| 
  
  
e|-----5----|----------|-----5----|----------|-----3----|----------|-----0----| 
B|----------|-7--------|-5--------|-3--------|-3--------|-3--------|-3---3----| 
G|-5--------|----------|----------|-0--------|-0--------|-0--------|-0--------| 
D|----------|-----0----|----------|-----0----|----------|-----0----|----------| 
A|----------|----------|----------|-2--------|----------|-1--------|----------| 
E|----------|----------|----------|----------|----------|----------|----------| 
  
   
e|-2--------|----------|-0--------|----------|-5--------|-----5----|-5--------| 
B|-3--------|-----3----|-----3----|-----3----|-7--------|-7--------|----------| 
G|----------|-2--------|----------|-2--------|-7---7----|----------|-6--------| 
D|-----0----|----------|----------|----------|----------|----------|-----0----| 
A|----------|----------|----------|----------|----------|----------|----------| 
E|----------|----------|----------|----------|----------|----------|----------| 
  
   
e|-----5----|-7--------|-----5----|----------|-----5----|----------|-----3----| 
B|----------|-7--------|----------|-7--------|-5--------|-3--------|-3--------| 
G|-6--------|-5--------|-5--------|----------|----------|-0--------|-0--------| 
D|----------|-----0----|----------|-----0----|----------|-----0----|----------| 
A|----------|----------|----------|----------|----------|-2--------|----------| 
E|----------|----------|----------|----------|----------|----------|----------| 
  
   
e|----------|-----0----|-2--------|----------|-0--------|----------|-2--------| 
B|-3--------|-3---3----|-3--------|-----3----|-----3----|-----3----|-3--------| 
G|-0--------|-0--------|----------|-2--------|----------|-2--------|-2--------| 
D|-----0----|----------|-----0----|----------|----------|----------|-----0----| 
A|-1--------|----------|----------|----------|----------|----------|----------| 
E|----------|----------|----------|----------|----------|----------|----------| 
  
   
e|-0---2----|-0--------|-2--------|-3--------|-0--------|-2--------|-----0----| 
B|-3---3----|-3--------|-3--------|-3--------|-3--------|-3--------|-3--------| 
G|-2---2----|-2--------|-2--------|-2--------|-2--------|-2--------|-2--------| 
D|----------|-----0----|-----0----|-----0----|-----0----|-----0----|----------| 
A|----------|----------|----------|----------|----------|----------|----------| 
E|----------|----------|----------|----------|----------|----------|----------| 
  
                                                                   >1  
e|----------|-----0----|----------|-----0----|----------|---------||-0--------||---------| 
B|-3--------|-3--------|-3--------|-3--------|----------|-3-------||-----3----||-----3---| 
G|-----0----|----------|-----0----|----------|-----2----|-----2---||----------||-2-------| 
D|----------|----------|----------|----------|-0--------|---------||----------||---------|  
A|-2--------|----------|-3--------|----------|----------|---------||----------||---------| 
E|----------|----------|----------|----------|----------|---------||----------||---------| 

Repeat from the beginning. End with: 
  
>2         
e|-2b-------| 
B|-3b-------| 
G|-2b-------| 
D|-0b-------| 
A|----------| 
E|----------| 



************************************ 

| b  Bend 
| /  Slide up 

************************************ 
  

top 5 | john hartford
top country
Outras músicas do artista letras do(a) John Hartford
Top cifras »Top artistas »
Petaxxon Comunicação Online
Cifras.com.br - Melhor e mais completo site de cifras e tablaturas do Brasil
Mais de 1 milhão de acordes de músicas cadastradas desde 2003
As informações contidas no nosso site são colaborações de seus usuários e podem conter erros, sendo assim, não nos responsabilizamos sobre nenhuma destas.
close
menos
mais
close
Cor dos acordes:

Cor da letra:

 

save
close
close
 
redimensionar