Cifras e Tablaturas
John Mayer

John Mayer

Everyday I Have The Blues

Ano: 2008
Album : Where The Light Is:John Mayer Live In Los Angeles

Cifras Cancelar Versão de Impressão

John Mayer - Everyday I Have The Blues

Tom: C

  			   C7                                   C#7 
E|------------------------|------------------------| 
B|------------------------|------------------------| 
G|7-----7-----7-----7-----|7-----7-------8---8-8---| 
D|8-----8-----8-----8-----|8-----8-------9---9-9---| 
A|7-----7-----7-----7-----|7-----7-------8---8-8---| 
E|8---8-----8-----8-----8-|----8-----8-9---9-----0-| 
 
Riff 2 

   C7 
E|--------------------------|--8----------------------------------| 
B|--------------------------|--8h10---8-----8b--------------------| 
G|7-----7-----7-----7---7---|----------8----8b---10---------------| 
D|8-----8-----8-----8---8---|-----------10---------10-------------| 
A|7-----7-----7-----7---7---|------------------------10-8h9p8-----| 
E|8---8-----8-----8---------|---------------------------------11\-| 
 
Verso 1 

C#7      C7 
    Everyday, everyday I have the blues 
    F7/9        C7 
Everyday, everyday I have the blues 
         G7/9                F7/9 
When you see me worried baby 
                           C7     C#7 
'Cause It's you I hate to lose 

Verso 2 

C7                   C#7 C7 
  Oh, nobody loves me,     nobody seems to care 
F7/9                    C7 
  Yes, nobody loves me, nobody seems to care 
           G7/9                      F7/9 
Talk about worries and problems babe     
                       C7     C#7 
Well you know I had my share 

Solo 

E|---------------------------------------|---------------------------------| 
B|------13-13v-------------15b(17)p13----|----13v---15b(17)------13v-13v---| 
G|10/15----------15-------x-----------15-|---x----------------15-----------| 
D|-----------------------x---------------|--x------------------------------| 
A|----------------------x----------------|-x-------------------------------| 
E|---------------------x-----------------|x--------------------------------| 
 
E|-----------------------------| 
B|13v-------------15b(17)r15---| 
G|----15---------x-------------| 
D|--------------x--------------| 
A|-------------x---------------| 
E|------------x----------------| 
 
E|--------------------------------------------------------------------| 
B|13---15-13h15p13-------13h16p13-------13h16p13-------13h16p13-------| 
G|-----------------15b------------15b------------15b------------15b---| 
D|--------------------------------------------------------------------| 
A|--------------------------------------------------------------------| 
E|--------------------------------------------------------------------| 
 
E|-----------------------------|--------------------------------------------| 
B|16-16b(20)--------13-13v-15--|-----13-13v-15-----15b(17)r15---13----13--13| 
G|-----------(0)-15------------|--15------------15-----------------15-------| 
D|-----------------------------|--------------------------------------------| 
A|-----------------------------|--------------------------------------------| 
E|-----------------------------|--------------------------------------------| 
 
E|15------------------8--------|----------------------------------------| 
B|---13v--13\-------8---11-----|8---------------------------------------| 
G|-------------------------10b-|--8b(9)---------8b(9)-------------------| 
D|------------/10--------------|---------10v----------10p8\-------------| 
A|-----------------------------|-------------------------------/13\-----| 
E|-----------------------------|----------------------------------------| 
 
E|----10h12---10----------------------------------------| 
B|----10---------12p10----------------------------------| 
G|---x-----------------12-11p10-------------------------| 
D|--x---------------------------12---10-----------------| 
A|-x------------------------------------12-11p10--------| 
E|x-----------------------------------------------13\---| 
 
E|----8h10---8-------------------------------| 
B|----8--------10p8--------------------------| 
G|---x--------------11-10p8------------------| 
D|--x-----------------------10-8-------------| 
A|-x-----------------------------10-8h9p8----| 
E|x---------------------------------------11-| 
                                              
E|------------------------------------------|-------------------------------| 
B|------------------------------------------|-------------------------------| 
G|------------------------------------------|---------------------10--10-10-| 
D|8h10p8---8h10p8---8h10p8---8h10-8h10-8h10-|8h10p8---10\--------x----------| 
A|------------------------------------------|-------------/18\--x-----------| 
E|------------------------------------------|------------------x------------| 
  Trill                                       

E|-----------------------------|---------------------x------------------| 
B|-----------------------------|--------------------x-------------------| 
G|8v-------------------8-10-8v-|-------------------x------10----10-10---| 
D|--------10p8--------x--------|---10p8-----------x------x-----x-----x--| 
A|-------------10p8--x---------|--------10p8\-0--x------x-----x-------x-| 
E|------------------x----------|--------------0-x------x-----x---------x| 
                                                
E|----------------------------------------| 
B|----------------------------------------| 
G|---8v-------------------------/10\------| 
D|--x-----10p8----------/12\---x------x-x-| 
A|-x-----------10p8-0--x------x-------x-x-| 
E|x-----------------0-x------x--------x-x-| 
 
E|-----------------------------------------------| 
B|----11b(13)v---11b(13)---11b(13)----11b(13)-11-| 
G|---x-------------------------------x-----------| 
D|--x-------------------------------x------------| 
A|-x-------------------------------x-------------| 
E|x-------------------------------x--------------| 
 
E|-----------------------------------------------| 
B|11b(13)-11-11b(13)v---b(13)-11-8-------11b(13)-| 
G|--------------------------------------x--------| 
D|-------------------------------------x---------| 
A|------------------------------------x----------| 
E|-----------------------------------x-----------| 
 
E|---------------------------------------------------| 
B|b(13)-11-8-----11b(13)v---11b(13)----11b(13)-------| 
G|--------------x------------------------------10-10-| 
D|-------------x-------------------------------------| 
A|------------x--------------------------------------| 
E|-----------x---------------------------------------| 
 
E|------------------------------------------------------------------8-| 
B|----------11b(13)-----------------------------------------------8---| 
G|8bv--b8\-------------10-10-10-8b--b8\-----8/13\--13\----10b(12)-----| 
D|-----------------------------------------x-------------x------------| 
A|----------------------------------------x-------------x-------------| 
E|---------------------------------------x-------------x--------------| 
 
E|----------8-------------8--------------8-------------8---| 
B|11b(13)-----8-11b(13)------8-11b(13)-----8-11b(13)-----8-| 
G|---------------------------------------------------------| 
D|---------------------------------------------------------| 
A|---------------------------------------------------------| 
E|---------------------------------------------------------| 
 
e|11b(13)v----------11b(13)v---|-----11b(13)--------11b(13)-------11b(13)---| 
B|-----------------x-----------|----x--------------x-------------x----------| 
G|----------------x------------|---x--------------x-------------x-----------| 
D|---------------x-------------|--x--------------x-------------x------------| 
A|--------------x--------------|-x--------------x-------------x-------------| 
E|-------------x---------------|x--------------x-------------x--------------| 
                          
E|--------12b(14)---------13b(15)--------13b(15)---13b(15)-| 
B|-------x---------------x--------------x------------------| 
G|------x---------------x--------------x-------------------| 
D|-----x---------------x--------------x--------------------| 
A|----x---------------x--------------x---------------------| 
E|---x---------------x--------------x----------------------| 
 
E|13---11v-----------------11---------13b(16)-|13v---13v---11---------------| 
B|---------13v---13v-13v-------------x--------|---------------13v---13v--13-| 
G|----------------------------13----x---------|-----------------------------| 
D|---------------------------------x----------|-----------------------------| 
A|--------------------------------x-----------|-----------------------------| 
E|-------------------------------x------------|-----------------------------| 
 
e|11b(13)--------------13b(15)---|-----13b(15)---13b(15)---11---------------| 
B|-------------------------------|----x-----------------------13v---13v-----| 
G|---------------x-0-------------|---x--------------------------------------| 
D|----------13\--x---0-----------|--x-----------------------------------(0)-| 
A|----------13\--x---------------|-x------------------------------------(0)-| 
E|-------------------------------|x-------------------------------------(0)-| 
 
E|------------------------------|-----------------------------------| 
B|----16b(18)b(19)---16b(18)-16b|---13v------13v---16---13h16p13----| 
G|---x--------------------------|---------15---------------------16-| 
D|--x---------------------------|-----------------------------------| 
A|-x----------------------------|-----------------------------------| 
E|x-----------------------------|-----------------------------------| 
 
E|-----15b(17)-------------------8----------| 
B|----x--------16\-------------8---11-------| 
G|---x---------------/13\----8--------10-10-| 
D|--x-----------------------x---------------| 
A|-x-----------------------x----------------| 
E|x-----------------------x-----------------| 
 
E|---------------------------------------------| 
B|---------------------------------------------| 
G|---8b----------8h10---8----------------------| 
D|--x-----(0)---x----------10\---x---13\---(0)-| 
A|-x------(0)--x----------x------x---------(0)-| 
E|x-------(0)-x----------x-------x---------(0)-| 
 
E|----------15-17-16-15--------------------| 
B|----15-18-------------18v---15-----------| 
G|---x-----------------------------17---15-| 
D|--x-----------------------------x--------| 
A|-x-----------------------------x---------| 
E|x-----------------------------x----------| 
 
E|-----------13-15---14p13-------------------------| 
B|----/13-16---------------16----------------------| 
G|---x------------------------\12p10---8-----------| 
D|--x---------------------------------x----10p8----| 
A|-x---------------------------------x----------10-| 
E|x---------------------------------x--------------| 
 
E|---------------------------------------|----------------------------| 
B|---------------------------------------|----------------------------| 
G|---------------------------------------|--------7-----8-8-8-8-------| 
D|----(0)--------8--10--8------10--8-----|8-8-8-8-8-(0)-9-9-9-9---(0)-| 
A|----(0)-8h10--x--x---x--10--x---x---10-|7-7-7-7-7-(0)-8-8-8-8---(0)-| 
E|8------------x--x---x--x---x---x---x---|x-x-x-x-x-----x-x-x-x---(0)-| 
 
Verso 3 

C#7      C7 
    Everyday yeah, everyday yeah, everyday Everyday everyday 
     F7/9                                C7 
Everyday everyday everyday everyday everyday everyday everyday yeah 
     G7/9    F7/9                       C7 
Everyday now, everyday I have the blues 

Final 

E|---11b-8----8----------|--------------3------------| 
B|---------11------------|----6--5------3------------| 
G|--------------10-8--10-|----5--4------3------------| 
D|--------------------10-|----4--5------2------------| 
A|-----------------------|8\--5--4------3------------| 
E|-----------------------|---------------------------| 
 
E|------------8-------------------------------------------------------------| 
B|----------8---11--8----------------------------------------------8b----8b-| 
G|--------------------10p8----8---------------------------8b(10)---8b----8b-| 
D|---/10-------------------8----10p8-------------10v-----x--------x------x--| 
A|-----------------------------------8-7p6--------------x--------x------x---| 
E|-----------------------------------------11-8--------x--------x------x----| 
 
E|-----------------------| 
B|8----8\----------------| 
G|9----9\----------------| 
D|10---10\---------------| 
A|-----10\---------------| 
E|-----8\----------------| 
 
    	
fixar
fixar inscrever-se

enviado porenviado por: gustsilva
cifra enviadaCorrigida por: sem correções
logo top cifrasComente
ico música do artistaMúsicas deste artista
ico curtiuCurtiu?
ico destaqueDestaque
Petaxxon Comunicação Online

Cifras.com.br - Melhor e mais completo site de cifras e tablaturas do Brasil Mais de 1 milhão de acordes de músicas cadastradas desde 2003
As informações contidas no nosso site são colaborações de seus usuários e podem conter erros, sendo assim, não nos responsabilizamos sobre nenhuma destas.

close
menos
mais
close
Cor dos acordes:

Cor da letra:

close
Alinhar acordes a direita Alinhar acordes a esquerda Alinhar acordes em baixo Alinhar acordes no topo
close
  Mostrar todos os acordes Esconder acordes muito fáceis Esconder acordes fáceis Esconder acordes intermediários
redimensionar
glossário