Cifras e Tablaturas
John Mayer

John Mayer

Good Love Is On The Way

Ano: 2008
Album : Where The Light Is:John Mayer Live In Los Angeles

Cifras Cancelar Versão de Impressão
cifras

John Mayer - Good Love Is On The Way

fixar na tela  
Exibindo: vídeo-aula ver clipes redimensionar

Tom:

  E|-(0)----------(0)--------(0)--------(0)-------------| 
B|--2~-----------2----------2----------2--------------| 
G|--2~----0--0---2---0--0---2---0--0---2---0--0-------| 
D|--2~----4--4---2---4--4---2---4--4---2---4--4-------| 
A|--0~----x--x---0---x--x---0---x--x---0---x--x-------| 
E|--------3--3-------3--3-------3--3-------3--3-------| 
 
E|----------------------------------------------------------------| 
B|--2-2--0^-------------------------------------------------------| 
G|--2-2--0^------------------------0-0----------------------------| 
D|--2-2--0^--------4h5p4p0-2p0-----0-0--------4h5p4p0-2p0---------|(x6) 
A|--0-0------0-4p0------------4p0--x-x--0-2p0------------4p0------| 
E|---------------------------------3-3----------------------------| 
 
Verses 

E|-------------                          e|-------------------------------| 
B|--2----------                          b--2----------------------------| 
G|--2---0------    ----->Fill For Verse  g--2--2-2--2----2--0h2p0-0------| 
D|--2---0------                          d--2---2--2--2-2---0----0-------| 
A|--0---x------                          a--0-----0----0----x------------| 
E|------3------                          E|------------------3------------| 
"Im a lazy lover...."                        PM.......... 
"Free is broken hearted..." 

Chorus 


E|--2--2-------------5-------------------| 
B|--3--0--2----------5------2------------| 
G|--2--0--2--4--2--4/6--6\2-2------------| 
D|--0--0--2----------x------2------------| 
A|--x--x--0-----------------0------------| 
E|--2--3---------------------------------| 
"Good love is on the..." 


Bridge 


E|-------------------------------------| 
B|-----------------------------2-------| 
G|-------7-----7-----7---------2-------| 
D|-----7-----7-----7-----------2-------|(x3) 
A|--10-----9-----7-----5\------0-------| 
E|-------------------------2-3---------| 
"Good to go for wherever..." 

                                     +o+o 
E|-------------------------------0~~~~-------| 
B|-------------------------------0~~~~-------| 
G|-------7-----7-----7-----------1~~~~-------| 
D|-----7-----7-----7-------------2~~~~-------| 
A|--10-----9-----7-----5\--------2~~~~-------| 
E|--------------------------3-2--0~~~~-------| 
"You can take all the..." 
"You can have all the tricks..." 


Solo (John) 
    +o  + + + o o+ o+  o + o + +       o+          o+ o 
E|------------------------------------------12-------------------| 
B|------10-10-12--12gb-12b-12p10----10--12gb--12r-10-------------| 
G|--/11--------------------------11------------------11----------| 
D|---------------------------------------------------------------| 
A|---------------------------------------------------------------| 
E|---------------------------------------------------------------| 
 
   + o   o +  o    + o o+   o+   o   +o+o     o     +  o 
E|---------------------------------------12-12--10-12----------------| 
B|--13gb-12b-12-10----10----10-10-----0^--------------12b-12-10------| 
G|-----------------11----11-------11--0^-----------------------------| 
D|------------------------------------0^-----------------------------| 
A|-------------------------------------------------------------------| 
E|-------------------------------------------------------------------| 
 
   + o   +   o + o    +   o  +o+o  +   o          +    o+  o        +o+o+o+o 
E|---------------------------------------------------------------------------| 
B|--12gbr-12-12-13br-12br-------------------------------------------------0~-| 
G|------------------------11b-11-9-7-9--5b-----------7-5b-----------------0~-| 
D|-----------------------------------------7-7-5----------7-5-------------0~-| 
A|-----------------------------------------------7-5----------7-6-5--3----0~-| 
E|---------------------------------------------------------------------5-----| 
  

top 5 | john mayer
top rock'n roll
Outras músicas do artista letras do(a) John Mayer
Top cifras »Top artistas »
Petaxxon Comunicação Online
Cifras.com.br - Melhor e mais completo site de cifras e tablaturas do Brasil
Mais de 1 milhão de acordes de músicas cadastradas desde 2003
As informações contidas no nosso site são colaborações de seus usuários e podem conter erros, sendo assim, não nos responsabilizamos sobre nenhuma destas.
close
menos
mais
close
Cor dos acordes:

Cor da letra:

 

save
close
close
 
redimensionar