Cifras e Tablaturas
John Mayer

John Mayer

I Got A Woman

Cifras Cancelar Versão de Impressão
cifras

John Mayer - I Got A Woman

fixar na tela  
Exibindo: vídeo-aula ver clipes redimensionar

Tom:

  E|----------------------------|-14-------------------------------------| 
B|----10-12-13-12-10----10-12-|----13-12-10----10-10-10/11-------------| 
G|-11----------------11-------|-------------11-------------------------| 
D|----------------------------|----------------------------------------| 
A|----------------------------|----------------------------------------| 
E|----------------------------|----------------------------------------| 
 
E|----12-12-14b-12----12-14b--|-17b19-17b18-17b18-15-------15b---------| 
B|-15--------------15---------|----------------------17-17-------------| 
G|----------------------------|----------------------------------------| 
D|----------------------------|----------------------------------------| 
A|----------------------------|----------------------------------------| 
E|----------------------------|----------------------------------------| 
 
E|----15-17b-15-17b-21-|-x-x-|-----17-15-17-17p15----15----------------| 
B|-17------------------|-5-5-|-/17----------------17----15-------------| 
G|---------------------|-6-6-|-----------------------------14----------| 
D|---------------------|-5-5-|-----------------------------------------| 
A|---------------------|-----|-----------------------------------------| 
E|---------------------|-----|-----------------------------------------| 
 
E|-15/17-17p15-------------|-x-x-|-------------------|-x-x-x-----------| 
B|------------ 17-15h17-17-|-5-5-|-15-15/17-13-15p13-|-5-5-5-----------| 
G|-------------------------|-6-6-|-------------------|-6-6-6-----------| 
D|-------------------------|-5-5-|-------------------|-5-5-5-----------| 
A|-------------------------|-----|-------------------|-----------------| 
E|-------------------------|-----|-------------------|-----------------| 
 
E|--------------------------------------|-x-|---x------------|---------| 
B|----10-10-12-10-13h14-10p8------------|-4-|-/14-10-8-------|---------| 
G|-11------------------------9-7--------|-5-|----------9-7h9-|---------| 
D|-------------------------------10-7-7-|-4-|----------------|---------| 
A|--------------------------------------|---|----------------|---------| 
E|--------------------------------------|---|----------------|---------| 
 
E|-x-|-10b--x-----------15-12-10-------|-x-x-x-x-x-|-7---7---7---7-----| 
B|-x-|-x----x--10-13-14----------13-10-|-5-5-4-4-4-|-9-9-9-9-9-9-9-9---| 
G|-7-|-x----11-------------------------|-6-6-5-5-5-|-7-7-7-7-7-7-7-7---| 
D|-6-|-x-------------------------------|-5-5-4-4-4-|---9---9---9---9---| 
A|-7-|-x-------------------------------|-----------|-------------------| 
E|---|---------------------------------|-----------|-------------------| 
 

...like always, leave me a comment on how it sounds.  if i mess up anywhere and you 
it, leave a comment to tell me and ill fix it, thanks, have fun 

B|-Rady 
  

top 5 | john mayer
top rock'n roll
Outras músicas do artista letras do(a) John Mayer
Top cifras »Top artistas »
Petaxxon Comunicação Online
Cifras.com.br - Melhor e mais completo site de cifras e tablaturas do Brasil
Mais de 1 milhão de acordes de músicas cadastradas desde 2003
As informações contidas no nosso site são colaborações de seus usuários e podem conter erros, sendo assim, não nos responsabilizamos sobre nenhuma destas.
close
menos
mais
close
Cor dos acordes:

Cor da letra:

 

save
close
close
 
redimensionar