Cifras e Tablaturas
John Mayer

John Mayer

Two Rock Signature Amp Demo

Cifras Cancelar Versão de Impressão
cifras

John Mayer - Two Rock Signature Amp Demo

fixar na tela  
Exibindo: vídeo-aula ver clipes redimensionar

Tom:

  
FINGERS 
e|--------------X-------------X-------------X-------------X-------------X--------------| 
B|--------------X-------------X------5------5-----5-------X-------------X--------------| 
G|-------9------X--8/9----9/8-X------4h6----4-----4-------X------9------X--8/9----9/8--| 
D|--------------X--9/11--11/9-11p9----------X-----6-------6/11----------X--9/11--11/9--| 
A|-9/11---------X-------------11p9----------X-------------X-------------X--------------| 
E|----------9---X-------------X------5------X-----0---(0)-X---------9---X--------------| 

e|-X-------------X-----------9-----------------X--------------------------------------------| 
B|-X-------------x---5-------------------------9-12/14-----12--------------------------5----| 
G|-X----4---6----4---4-------12\11p9-----------9------11/13—13\11p9--------------------6----| 
D|-11p9-4h6-6p4--4---6---------------11—-9h11--X-------------------(11)-----9----------7----| 
A|-11p9-0------7-X-----------------------------X-----------------------9/11--11\9p7---------| 
E|-X-------------X---0----------------(0)9-----X-------------------------------------5------| 

e|-X------------------------------------X---------------------------------------------X-------| 
B|-5--5---------------12----------------9------9---------9-------------------------5--5--5----| 
G|-6--4----------11/13-13\11~p9---------9------9h11p9----9h11p9--9-----------------6--6--4----| 
D|-7--6-------------------------(11)----11—(11)------(11)--------9h11--------------7--7--6----| 
A|-X------------------------------------X-----------------------------9h10p9----------X-------| 
E|-X--0------(0)-----------------9-(9)--X-----------------------------------12/--5----X--0----| 

PICK 
e|--------------------------------------------------X----------0-----------------| 
B|---------------------------------10/12------------X----9-----5--7--7/9----5----| 
G|-------12r11-11-11b12r11-9----9—-11/13-------9----X----9-----6--6-(6)/----4----| 
D|---------------------------11----------------9h11-X-/11--11--7--7-(7)/----6----| 
A|-----------------------------------------/11------X----------------------------| 
E|-----------------------(0)------------------------X----------5------------0----| 

e|--12----12--------------------------------X---12-----------------------------------X-------| 
B|--12h14-12--12----------------------------9-------------------------------------5--5—-5----| 
G|------------11h13—-12\11------------------9------12\11p9------------------------6--6--4----| 
D|------------------------14-11-------------11------------------------------------7--7—-6----| 
A|-------------------------------14\--------X-------------11\9p7---------------------X-------| 
E|-----------------------------------9-(9)--X--------------------9\7p5\(2)/3p0--5----X--0----| 


************************************ 

| h    Hammer-on 
| p    Pull-off 
| /    Slide up 
| \    Slide down 
| (n)  Ghost note 
| x    Dead note 
| b    Bend 
| r    Release 

************************************ 
  

top 5 | john mayer
top rock'n roll
Outras músicas do artista letras do(a) John Mayer
5.
Xo
Top cifras »Top artistas »
Petaxxon Comunicação Online
Cifras.com.br - Melhor e mais completo site de cifras e tablaturas do Brasil
Mais de 1 milhão de acordes de músicas cadastradas desde 2003
As informações contidas no nosso site são colaborações de seus usuários e podem conter erros, sendo assim, não nos responsabilizamos sobre nenhuma destas.
close
menos
mais
close
Cor dos acordes:

Cor da letra:

 

save
close
close
 
redimensionar