Cifras e Tablaturas
John Moreland

John Moreland

Hang Me On The Tulsa County Stars

Cifras Cancelar Versão de Impressão
cifras

John Moreland - Hang Me On The Tulsa County Stars

fixar na tela  
Exibindo: vídeo-aula ver clipes redimensionar

Tom:

   
Capo 5


Intro 

e|---------------------------------------------------------------------------------------| 
B|--0---------------------0--------------------------------------------------------------| 
G|-----------0------0h2--------2-----0---------0-------------0---------------------------| 
D|-----0-------0--------0--------0------0--------0-----0-------0-------------------------| 
A|---------------------------------------------------------------------------------------| 
E|--3-----3---------2-------2--------3-----3--------3-----3------------------------------| 

e|----------------0----------------------------------------------------------------------| 
B|--1---------------------1-----------3--------------------------------------------------| 
G|-----------0----------------0-----------------0----------------0-----------------------| 
D|-----2-------2-------2---------2--------0--------0------0----------0-------------------| 
A|---------------------------------------------------------------------------------------| 
E|--3-----3---------3-------3---------3------3--------3-------3--------------------------| 

e|--3----------------0------------------------0------------------------------------------| 
B|------------------------1----------3-------------1-------------------------------------| 
G|------------0---------------0------------------------------0---------------------------| 
D|-----0--------0-------2-------2-------0-------0-----2----------2-----------------------| 
A|---------------------------------------------------------------------------------------| 
E|--3------3---------3------3--------3-----3-------3------3------------------------------| 

e|---------------------------------------------------------------------------------------| 
B|--0--------------------0------------------------0h1------------------------------------| 
G|----------0----0h2----------2-----0-------0---------------0----------------------------| 
D|-----0------0-------0---------0------0------0--------2-------2-------------------------| 
A|---------------------------------------------------------------------------------------| 
E|--3-----3------2---------2--------3-----3-------3-------3------------------------------| 

e|------------------------------------------------------------3--------------------------| 
B|--0--------------------0----------------------------------------------------0----------| 
G|-----------0----0h2----------2-----0------0-------------0--------------0------------0--| 
D|-----0-------0-------0---------0------0-----0------0------0-------0------0------0-----0| 
A|---------------------------------------------------------------------------------------| 
E|--3-----3-------2---------2--------3----3------3------3--------3-----3--------3---3----| 



Verse 

e|---------------------------------------------------------------------------------------| 
B|--0--------------------------------------0---------------------------------------------| 
G|---------0----2-------2----0-------0-----------------0---------------------------------| 
D|----0------0-----0------0-----0------0---------0--------0------------------------------| 
A|---------------------------------------------------------------------------------------| 
E|--3---3-------2-----2------3-----3----------3-----3------------------------------------| 

e|---------------------------------------------------------------------------------------| 
B|--1-----------1------------------0-----------------------------------------------------| 
G|----------0----------------0---------------0--------------0----------------------------| 
D|-----2------2--------2--------2------0-------0------0-------0--------------------------| 
A|---------------------------------------------------------------------------------------| 
E|--3-----3--------3------3--------3------3--------3-----3-------------------------------| 

e|---------------------------------------------------------------------------------------| 
B|--0--------------------------------1------------------0--------------------------------| 
G|-----------0------2----------2-----------------0------------------0--------------------| 
D|-----2-------2---------0-------0--------2--------2---------0--------0------------------| 
A|---------------------------------------------------------------------------------------| 
E|--0-----0---------2-------2--------3-------3----------3--------3-----------------------| 

e|---------------------------------------------------------------------------------------| 
B|--0------------------------------------------------------------------------------------| 
G|------------0-----2--------2------0-----------0-------------------0--------------------|    x2 
D|------0-------0------0-------0---------0---------0----------0--------0-----------------| 
A|---------------------------------------------------------------------------------------| 
E|--3------3--------2-----2---------3--------3-------------3-----3-----------------------| 



e|--3------------------------------------------------------------------------------------| 
B|---------------------------------------------------------------------------------------| 
G|----------------0----------------------------------------------------------------------| 
D|---------0--------0--------------------------------------------------------------------| 
A|---------------------------------------------------------------------------------------| 
E|-----3-------3-------------------------------------------------------------------------| 



Bridge 

e|---------------------------------------------------------------------------------------| 
B|--1--------------------------------1-------------------1-------------------------------| 
G|------------0-----------------0-------------------0------------------0-----------------| 
D|-----2--------2-------2---------2---------2---------2--------2----------2--------------| 
A|---------------------------------------------------------------------------------------| 
E|--3------3--------3-------3------------3------3-----------3------3---------------------| 

e|---------------------------------------------------------------------------------------| 
B|--0----------------0---------------------0------------------3--------------------------| 
G|-------------0------------------0-------------------0-------------------0--------------| 
D|-----0---------0----------0-------0----------0--------0---------0---------0------------| 
A|---------------------------------------------------------------------------------------| 
E|--3------3-------------3-----3-----------3-------3----------2-------2------------------| 

e|------------------0--------------------------------------------------------------------| 
B|--0--------------------------------------0---------------------------------------------| 
G|------------0---------------------0--------------------0------2-----------2------------| 
D|------2-------2-----------2---------2--------2-----------2--------0----------0---------| 
A|---------------------------------------------------------------------------------------| 
E|--0------0------------0--------0---------0--------0-----------2--------2---------------| 


e|---------------------------------------------------------------------------------------| 
B|----------1----------1---------------1-------------------------------------------------| 
G|----------------0----------------0-------------2--------------2------------------------| 
D|--0h2--2----------2--------2------2------0--------0------0---------0-------------------| 
A|---------------------------------------------------------------------------------------| 
E|--3----------3----------3------3-----2-------2--------2-----2--------------------------| 



Solo 

e|---------------------------------------------------------------------------------------| 
B|--17----------------17------------15------13----------------13-------------------------| 
G|---------------0---------0-----------------------------0-------------------0-----------| 
D|-------0---------0---------0----------0--------0---------0----------0--------0---------| 
A|---------------------------------------------------------------------------------------| 
E|--15-------15---------15----------13------12-------12-----------12-----12--------------| 

e|------------------------------0--------------------------------------------------------| 
B|--13---------------12---------------------------3--------------------------------------| 
G|--------------0------------------------0------------------0---------------0------------| 
D|------0---------0---------0---------------0--------0--------0------0--------0----------| 
A|---------------------------------------------------------------------------------------| 
E|--13------13----------13----------13------------3------3--------3------3---------------| 

e|--------------------------------------------------0------------------------------------| 
B|--3/5-------------0---------------0h1------3------------3------------------------------| 
G|------------0---------------0---------------------------------------0------------------| 
D|------0-------0------2--------2---------0-----------0--------0--------0----------------| 
A|---------------------------------------------------------------------------------------| 
E|--0-------0-------0------0--------3------------3--------3-------3----------------------| 

e|------------------------------------------------------------3--------------------------| 
B|--0--------------------0----------------------------------------------------0----------| 
G|-----------0----0h2----------2-----0------0-------------0--------------0------------0--| 
D|-----0-------0-------0---------0------0-----0------0------0-------0------0------0-----0| 
A|---------------------------------------------------------------------------------------| 
E|--3-----3-------2---------2--------3----3------3------3--------3-----3--------3---3----|  
  

top 5 | john moreland
top rock'n roll
Outras músicas do artista letras do(a) John Moreland
Top cifras »Top artistas »
Petaxxon Comunicação Online
Cifras.com.br - Melhor e mais completo site de cifras e tablaturas do Brasil
Mais de 1 milhão de acordes de músicas cadastradas desde 2003
As informações contidas no nosso site são colaborações de seus usuários e podem conter erros, sendo assim, não nos responsabilizamos sobre nenhuma destas.
close
menos
mais
close
Cor dos acordes:

Cor da letra:

 

save
close
close
 
redimensionar