Cifras e Tablaturas
Jorge Aragão

Jorge Aragão

Ave Maria (Cavaquinho)Tablatura Verificada

Compositor : (Charles Gounod)

Cifras Cancelar Versão de Impressão Print

Jorge Aragão - Ave Maria (Cavaquinho)

Tom: G

  • 0:00 / 0:00
  			
   G         Am        D7          G     B7  Em              Am 
d|---------------------0~--------------------2~------------------| 
B|-0~--------1~--------------------0~----------------------------|  
G|------------------------------2~------------------------0~-2~--|  
D|---------------------------------------------------2~-4~-------|  

           D7           G        B7  Em             A7          
d|---------0~------------------------5~--------------------------| 
B|-0~---------------------------------------------0~2~---0~------|  
G|---2~-----------------0~---2~0~------------0~-2~----------2~---|  
D|---------------0~-2~4~-----------------------------------------| 


        D                      Am          Ebº          G     
d|---------------------------0~2~-----------------------0~-------|  
B|----------------0~-------1~-----------------------0~1~---------|  
G|-----------------------------------------2~--------------------|  
D|2~--4~-----------------------------2~-----------------------0~-| 


  B7  Em           Am           D7              G         G7 
d|--------------------------0~2~4~---2~-0~----------------0~-----|  
B|---------------0~1~---------------------------0~---------------|  
G|----0~-------2~---------------------------2~-------------------|  
D|-0~------------------------------------------------------------| 


        C                                   Am          D7 
d|------2~----------2~----------2-5~----------5-5~---------------|  
B|0~-------------------------------------------------------------|  
G|------------------------0~------------3~------------2~----2~---|  
D|------------2~-------------------------------------------------|  


           G             Am           D7             
d|---------0~-------------------------7~---4~-0~----2~-------4~--| 
B|--------------0~-------1~-------0~-----------------------------|  
G|-----0~----------0~---------------2~---------------------------|  
D|-------4~------------------------------------------------------|  


    G               Am            D7                G    G7         
d|5~9~-----5~-0~------------2-4-2-0--7--4-0--------------------| 
B|---------------0~-------------------------1------------------|  
G|------------------2~------------------------2-----0~---------| 
D|----------------------------------------------4-0------------| 


          D7        G         D7        G 
d|--------0~--------0~--------0~--------9~-----------------------| 
B|---------------------------------------------------------------|  
G|~--------------------------------------------------------------|  
D|---------------------------------------------------------------|  

    	

enviado porenviado por: vitorsmello
cifra enviadaCorrigida por: ris1979
logo top cifrasComente
ico música do artistaMúsicas deste artista
ico curtiuCurtiu?
ico destaqueDestaque
Petaxxon Comunicação Online

Cifras.com.br - Melhor e mais completo site de cifras e tablaturas do Brasil Mais de 1 milhão de acordes de músicas cadastradas desde 2003
As informações contidas no nosso site são colaborações de seus usuários e podem conter erros, sendo assim, não nos responsabilizamos sobre nenhuma destas.

close
menos
mais
close
Cor dos acordes:

Cor da letra:

close
Alinhar acordes a direita Alinhar acordes a esquerda Alinhar acordes em baixo Alinhar acordes no topo
close
  Mostrar todos os acordes Esconder acordes muito fáceis Esconder acordes fáceis Esconder acordes intermediários
redimensionar
glossário