Cifras e Tablaturas
Jorge e Mateus

Jorge e Mateus

Fogueira / Prisão Sem Grade (pot-pourri)

Cifras Cancelar Versão de Impressão Print

Jorge e Mateus - Fogueira / Prisão Sem Grade (pot-pourri)

Tom: Bm

  • 0:00 / 0:00
  			
E|-----------------------7*-------------------------------| 
B|-----------------3-3---7*--0h2-2-2-0--------------------| 
G|-----------4-4-4---------------------2-4-4-4-4-2-4-2----| 
D|----0---------------------------------------------------| 
A|-0h2--4-2-----------------------------------------------| 
E|--------------------------------------------------------| 
 
E|--------------------7*-------------------------------------------------------------| 
B|--------------3-3---7*---10/12-12-12-10-10-10-8-8-8-7------------------------------| 
G|--------4-4-4-----------------------------------------7-7h9-9/11-9/11------7-6-----| 
D|----------------------------------------------------------------------7h9------9---| 
A|-5-4-2-----------------------------------------------------------------------------| 
E|-----------------------------------------------------------------------------------| 
 

 

Solo: ( Bm F#m G D  A/C#  Bm F#m G D ) 


E|-----------------------2-------------------------------| 
B|-----------------3-3-------0h2-2-2-0-------------------| 
G|-----------4-4-4---------------------2-4-4-4-4-2-4-2---| 
D|----0--------------------------------------------------| 
A|-0h2--4-2----------------------------------------------| 
E|-------------------------------------------------------| 
 
E|--------------------7*-------------------------------------------------------------| 
B|--------------3-3---7*---10/12-12-12-10-10-10-8-8-8-7------------------------------| 
G|--------4-4-4-----------------------------------------7-7h9-9/11-9/11------7-6-----| 
D|----------------------------------------------------------------------7h9------9---| 
A|-5-4-2-----------------------------------------------------------------------------| 
E|-----------------------------------------------------------------------------------| 
 


 

Riff 1:  
          Bm 
E|---------------------------------2-2-| 
B|-------------3-----3-----3-------3-3-| 
G|---------4-----4-----4-----4-----4-4-| 
D|-------4---4-----4-----4-----4-4-4-4-| 
A|---------------------------------2-2-| 
E|---------------------------------x-x-| 
 
  (Riff 2) 
E|------------------------------| 
B|--5--3--2-3---3--2----2-3-3/5-| 
G|--------------------4---------| 
D|------------------------------| 
A|------------------------------| 
E|------------------------------| 
 



E|-5b7-5-2-5b7-5-2----------------------| 
B|-----------------6---4-6-4-6b8--6b8---| 
G|------------------------------------5-| 
 

    	

enviado porenviado por: gustsilva
cifra enviadaCorrigida por: sem correções
logo top cifrasComente
ico música do artistaMúsicas deste artista
ico curtiuCurtiu?
ico destaqueDestaque
Petaxxon Comunicação Online

Cifras.com.br - Melhor e mais completo site de cifras e tablaturas do Brasil Mais de 1 milhão de acordes de músicas cadastradas desde 2003
As informações contidas no nosso site são colaborações de seus usuários e podem conter erros, sendo assim, não nos responsabilizamos sobre nenhuma destas.

close
menos
mais
close
Cor dos acordes:

Cor da letra:

close
Alinhar acordes a direita Alinhar acordes a esquerda Alinhar acordes em baixo Alinhar acordes no topo
close
  Mostrar todos os acordes Esconder acordes muito fáceis Esconder acordes fáceis Esconder acordes intermediários
redimensionar
glossário