Cifras e Tablaturas
Josué Rodrigues
Cifras Cancelar Versão de Impressão

Josué Rodrigues - Portas

Tom: E

  			Introdução 
E|-----------------------------------------------------|E 
B|-12-12-12-10-10-9-9-7-7-9--9-9-9-7-7-5-5-4-2-0-------|B 
G|-13-13-13-11-11-9-9-8-8-9--9-9-9-8-8-6-6-------------|G 
D|-----------------------------------------------------|D 
A|-----------------------------------------------------|A 
E|-----------------------------------------------------|E 
 
 
 
Opção 1 
E|-4-0------5-2-----7-4-----5--------------------------|E 
B|-----0-2------2-4-----4-5----------------------------|B 
G|-----------------------------------------------------|G 
D|-----------------------------------------------------|D 
A|-----------------------------------------------------|A 
E|-----------------------------------------------------|E 
 
 
Opção 2 
E|-4-------5-------7-----------------------------------|E 
B|---5-------7-------9-----10--------------------------|B 
G|-----4-6-----6-8-----8-9-----------------------------|G 
D|-----------------------------------------------------|D 
A|-----------------------------------------------------|A 
E|-0-------0-------0-------0---------------------------|E 
 
 
 
 
E|-----------------------------------------------------|E 
B|-12-12-12-10-10-9-9-7-7-9--9-9-9-7-7-5-5-4-2-0-------|B 
G|-13-13-13-11-11-9-9-8-8-9--9-9-9-8-8-6-6-------------|G 
D|-----------------------------------------------------|D 
A|-----------------------------------------------------|A 
E|-----------------------------------------------------|E 
 

    	
fixar
fixar inscrever-se

enviado porenviado por: LEVIS
cifra enviadaCorrigida por: sem correções
logo top cifrasComente
ico música do artistaMúsicas deste artista
ico curtiuCurtiu?
ico destaqueDestaque
Petaxxon Comunicação Online

Cifras.com.br - Melhor e mais completo site de cifras e tablaturas do Brasil Mais de 1 milhão de acordes de músicas cadastradas desde 2003
As informações contidas no nosso site são colaborações de seus usuários e podem conter erros, sendo assim, não nos responsabilizamos sobre nenhuma destas.

close
menos
mais
close
Cor dos acordes:

Cor da letra:

close
Alinhar acordes a direita Alinhar acordes a esquerda Alinhar acordes em baixo Alinhar acordes no topo
close
  Mostrar todos os acordes Esconder acordes muito fáceis Esconder acordes fáceis Esconder acordes intermediários
redimensionar
glossário