Cifras e Tablaturas
Julie London

Julie London

I Am Glad There Is You

Cifras Cancelar Versão de Impressão Print

Julie London - I Am Glad There Is You

Tom: Ab

  			verse 

  Abmaj7        Cm7    Abmaj7         Abm7       Bmaj7   Abm7 
|-8----------8--11--11--8--------------7-------7--11--11--7--| 
|-8----------8--11--11--8--------------7-------7--11--11--7--| 
|-8----------8--12--12--8--------------8-------8--11--11--8--| 
|-6----------6--10--10--6--------------6-------6---9--9---6--| 
|------------------------------------------------------------| 
|------------------------------------------------------------| 
In this world ........    of ordinary people,.... 

( Abm7 )     Bbm7       Cmaj7 Dbmaj7 Bbm7      Db-5/Bb 
|-------------9-------9--12/--13-13--9-----------------------| 
|-------------9-------9--12/--13-13--9----------8------------| 
|-------------10------10-12/--13-13--10---------6------------| 
|-------------8-------8--10/--11-11--8----------8------------| 
|------------------------------------------------------------| 
|------------------------------------------------------------| 
extraordinary people...                    I'm glad there is... 

  Abmaj7 B7     Emaj7        A7-5 
|--------------------------------------| 
|--4-4---4-4--4-4--4-7-4-7---4---------| 
|--5-5---2-2----4---------6--6----6----| 
|--5-5---4-4----6------------5---5--5--| 
|--------2-2----7----------------------| 
|--4-4-----------------------5--5------| 
you....................... 

  Abmaj7              Ab6  Abmaj7-5 
|--------------------------------------| 
|--4--4---4--4-----8---6----8----------| 
|--5--5---5--5---------5----7----------| 
|--5--5---5--5---------6----6----------| 
|--------------------------------------| 
|--4--4---4--4-------------------------| 
......In this world...   of overrated.. 

            Db  Db-5 Db Dbaug Db6 Db/Bb Db Db-5 
|---------------------------------13----------------------| 
|----------------8---9---10---11--14----9--8--------------| 
|-----------10---10--10--10---10--13----10-10-------------| 
|-----------11---11--11--11---11--------11-11-------------| 
|---------------------------------13----------------------| 
|---------------------------------------------------------| 
..pleasures.........                    an un-..-derrated.. 

 Abmaj9/Eb  Abmaj9/Eb Ab/Eb Cm7-5 ( Gbdim7 )   Bbm7/Ab Bbm7/F Bbm7/Eb Gm7-5 
|----------------------------------5--6--8---------8---9-11-----8-----6--| 
|--11--11-9---11-------9-----7-----7--7--7-------6-----9------6-------6--| 
|--12--12-----12-------------8-------------------6-----10-----6-------6--| 
|--10--10-----10-------10----8-------------------6-----8------6-------5--| 
|--11--11-----11-------11------------------------------8-----------------| 
|--11--11-----11-------11----8-------------------------------------------| 
..treasures......           ...I'm glad..there is you..... 

Ab7sus4/Eb Ab7/Eb    Dbmaj9/Ab Db/Ab         Dbm9/Ab   Gb13 
|------------------------------------------------------------| 
|--4------4------------4-------2--------------4---------4--2-| 
|--4------4------------4-------3--------------4------4--3----| 
|--4------4------------3----------------------2-----2---2----| 
|--6------6------------4-------4--------------4----4---------| 
|----------------------4-------4--------------4---4---2-2----| 
..............I live to love, ...I'll love to live....with you 

 Abadd9  Ab  Asus4      Cm/G       Abmaj7 
|--------------------------------------3-| 
|--4---4--4---4---4-------4--4--------4--| 
|--5---5--5---6---6-------5--5-------5---| 
|--8---8--6---6---6---5---5--5--3---6----| 
|----------------------------------------| 
|----------------------------------------| 
...beside me...................... 

             Fm/Ab  Fm  Fm/Ab Abaug Fm          Ab ( Ab6 ) Abmaj7-5 
|-4-----------------8---------------8-------------------------3--| 
|--------------6----9----6-----5----9-----------4------4------3--| 
|--------------5----10---5-----5----10----------5----5-5------5--| 
|--------------6---------6-----6----------------6----6--------6--| 
|----------------------------------------------------------------| 
|----------------------------------------------------------------| 
This world so new................... I'll muddle through with you 

 Bbm7 Bb7sus4 Bbm7 Bb7sus4 Bbm7 Bbm13 Bbm7  Bbm13 
|-----------------------------------------------| 
|--------------------------6-----8-----6-----8--| 
|-6-----8-----6-----8------6-----6-----6-----6--| 
|-6-----6-----6-----6------6-----6-----6-----6--| 
|-8-----8-----8-----8------8-----8-----8-----8--| 
|-6-----6-----6-----6------6-----6-----6-----6--| 
...to guide...................................... 

 Em7  E7sus4 Em7          A13               A7 
|------------------10------------5--------------| 
|-8-----10----8-----8------7-----7-----7-----5--| 
|-7-----7-----7-----7------6-----6-----6-----6--| 
|-9-----9-----9-----9------5-----5-----5-----5--| 
|-7-----7-----7-----7------0-----0-----0-----0--| 
|-----------------------------------------------| 
.me.............................................. 

  Abmaj7        Cm7    Abmaj7                  Abm7            Bmaj7   Abm7 
|---------------8--11--11--8--------------------7------------7--11--11--7--| 
|-4-------------8--11--11--8--------------------7------------7--11--11--7--| 
|-4-------------8--12--12--8--------------------8------------8--11--11--8--| 
|-5-------------6--10--10--6--------------------6------------6---9--9---6--| 
|--------------------------------------------------------------------------| 
|-4------------------------------------------------------------------------| 
 ...In this world ........  where very many many play at love............. 

( Abm7 )     Bbm7           Cmaj7 Dbmaj7 Am7 Bbm7  C6/G Db6/Ab D7/A Eb7/Bb 
|-------------9------------9--12/--13----8/--9------5/---6-------------| 
|-------------9------------9--12/--13----8/--9------5/---6-----7/----8-| 
|-------------10-----------10-12/--13----9/--10-----5/---6-----5/----6-| 
|-------------8------------8--10/--11----7/--8------5/---6-----7/----8-| 
|----------------------------------------------------------------------| 
|----------------------------------------------------------------------| 
But hardly    any stay in love..........       I´m glad........... 

          Cm7-5                            F7 
|-------------------------------------------------| 
|---------7----7----7----9-----7----9------6------| 
|---------8----8----8----------8-----------8------| 
|---------8----8----8----------8-----------7------| 
|------------------------------------------8------| 
|---------8----8----8----------8------------------| 
There is You....................................... 

   E7/B F7/C  Bbm7  Db6/Bb Adim7 Bbm7 Cdim7 Dbmaj7 
|---------------------6----8-----9----11----13---| 
|---5----6-----6--6---6----7-----9----10----13---| 
|---7----8-----6--6---6----8----10----11----13---| 
|---6----7-----6--6---6----7-----8----10----11---| 
|--(7)--(8)--------------------------------------| 
|---7----8-----6--6------------------------------| 
....More than ever............... 

     Bbm9        Bbdim9 Abmaj7 Abmaj7   Gbmaj7 G7#9 Ab6 
|-----8--------8----8----3-3----8-8--3-3----6----6----| 
|-----6--------6----5----4------8--------6-----6----6-| 
|-----6--------6----6----5------8--------3-----4----5-| 
|-----6--------6----5----6------6---------------------| 
|----(8)------(8)------------------------4-----5----6-| 
|-----6--------6----6--------------------2-----3----4-| 
I'm glad there is....  you............ 


************************************ 

| x   Dead note 
| g   Grace note 
| (n) Ghost note 
| h   Hammer-on 
| p   Pull-off 
| r   Release 
| >   Accented note 
| t   Tapping 
| b   Bend 
| br  Bend release 
| pb  Pre-bend 
| pbr Pre-bend release 
| /   Slide up 
| \   Slide down 
| ~   Vibrato 
| s   Slap 
| P   Pop 
| PM  Palm mute 
| TR  Trill 
| N   Tremolo 

************************************ 
    	
fixar
fixar inscrever-se

enviado porenviado por: gustsilva
cifra enviadaCorrigida por: sem correções
logo top cifrasComente
ico música do artistaMúsicas deste artista
ico curtiuCurtiu?
ico destaqueDestaque
Petaxxon Comunicação Online

Cifras.com.br - Melhor e mais completo site de cifras e tablaturas do Brasil Mais de 1 milhão de acordes de músicas cadastradas desde 2003
As informações contidas no nosso site são colaborações de seus usuários e podem conter erros, sendo assim, não nos responsabilizamos sobre nenhuma destas.

close
menos
mais
close
Cor dos acordes:

Cor da letra:

close
Alinhar acordes a direita Alinhar acordes a esquerda Alinhar acordes em baixo Alinhar acordes no topo
close
  Mostrar todos os acordes Esconder acordes muito fáceis Esconder acordes fáceis Esconder acordes intermediários
redimensionar
glossário