Cifras e Tablaturas
Jun Senoue

Jun Senoue

Highway In The Sky Final Rush

Cifras Cancelar Versão de Impressão

Jun Senoue - Highway In The Sky Final Rush

Tom:

  			Intro 
e|------------------------------------------------------| 
B|------------------------------------------------------| 
G|------------------------------------------------------|     x4 
D|----2/5----5h8----2/5-------2/5----5h8--7-7--10--9--8-| 
A|-0-------5-----0------5/7-0------5------7-7--10--9--8-| 
E|----------------------------------------5-5---8--7--6-| 
                                          . . 
Before moving onto the next part he plays this instead of the A#5: 

Intro 
e|------------------------------------------------------| 
B|------------------------------------------------------| 
G|------------------------------------------------------| 
D|----2/5----5h8----2/5-------2/5----5h8--7-7--10--9--5-| 
A|-0-------5-----0------5/7-0------5------7-7--10--9--5-| 
E|----------------------------------------5-5---8--7--3-| 
                                          . . 
"Verse"? 
(Guitar 1) 
e|-----------------------------------------------------------------------------------------| 
B|-----------------------------------------------------------------------------------------| 
G|-----------------------------------------------------------------------------------------| 
D|-8\7--5/7--6\5--------------------8\7--5/7--6\5-----------------8\7--5/7--6\5---7/10\9\8-| 
A|-8\7--5/7--6\5--------------------8\7--5/7--6\5-----------------8\7--5/7--6\5---7/10\9\8-| 
E|-6\5--3/5--8\7--------------------6\5--3/5--8\7-----------------6\5--3/5--8\7---5/-8\7\6-| 


(Guitar 2 - Left Ear Only) 
e|-----------------------------------------------------------------------------------------| 
B|-----------------------------------------------------------------------------------------| 
G|-----------------------------------------------------------------------------------------| 
D|----------------5-5-5555-5-5-5555---------------5-5-5555--5/7/8--------------------------| 
A|----------------5-5-5555-5-5-5555---------------5-5-5555--5/7/8--------------------------| 
E|----------------7-7-7777-7-7-7777---------------7-7-7777--3/5/6--------------------------| 
                  * * **** * * ****               * * **** 

Chorus 
(Guitar 1) 
e|-----------------------------------------------------------------------------------------| 
B|-----------------------------------------------------------------------------------------| 
G|-----------------------------------------------------------------------------------------| 
D|-10\7-7/12\10\5-9\4--4-4-4/10\8--10-10--10\7-7/12\10\5-9\4--4-4-4/10\8--10-10--7---------| 
A|-----------------------------------------------------------------------------------------| 
E|-----------------------------------------------------------------------------------------| 

(Guitar 2) 
e|-----------------------------------------------------------------------------------------| 
B|-----------------------------------------------------------------------------------------| 
G|-----------------------------------------------------------------------------------------| 
D|-7-7-77777777--10-1010101010101010--9-99999999----8--8--8/10-----------------------------|  x2 
A|-7-7-77777777--10-1010101010101010--9-99999999----8--8--8/10-----------------------------| 
E|-5-5-55555555---8--8-8-8-8-8-8-8-8--7-77777777----6--6--6/-8-----------------------------| 
       ********      * * * * * * * *    ******** 

Middle Part 
(Both) 
e|-----------------------------------------------------------------------------------------| 
B|-----------------------------------------------------------------------------------------| 
G|-----------------------------------------------------------------------------------------| 
D|-8-7---5-7---8-7---------------8-7---5-7---8-7----------------8-7---5-7---8-7------------| 
A|-8-7---5-7---8-7---------------8-7---5-7---8-7----------------8-7---5-7---8-7------------| 
E|-6-5---3-5---6-5---------------6-5---3-5---6-5----------------6-5---3-5---6-5------------| 

                      (Alternate between left and right ear for each chord here) 
e|-----------------------------------------------------------------------------------------| 
B|-----------------------------------------------------------------------------------------| 
G|-----------------------------------------------------------------------------------------| 
D|-8-7---5-7---8-7---7-10-9-12-11-10-9-8---------------------------------------------------| 
A|-8-7---5-7---8-7---7-10-9-12-11-10-9-8---------------------------------------------------| 
E|-6-5---3-5---6-5---5--8-7-10--9--8-7-6---------------------------------------------------| 

(Left Ear Only) 
e|-----------------------------------------------------------------------------------------| 
B|-----------------------------------------------------------------------------------------| 
G|-----------------------------------------------------------------------------------------| 
D|----------------7-7-777777--7\5----------------7-7-7777--5-7-8---------------5-7-8-------| 
A|----------------7-7-777777--7\5----------------7-7-7777--5-7-8---------------5-7-8-------| 
E|----------------5-5-555555--5\3----------------5-5-5555--3-5-6---------------3-5-6-------| 
                  * * ******                     * * **** 

Outro 
e|-----------------------------------------------------------------------------------------| 
B|-----------------------------------------------------------------------------------------| 
G|-----------------------------------------------------------------------------------------| 
D|----2/5----5h8----2/5-------2/5----5h8---10--9--8----------------------------------------| 
A|-0-------5-----0------5/7-0------5-------10--9--8----------------------------------------| 
E|-----------------------------------------------------------------------------------------| 

(Fade Out) 
e|------------------------------------------------------| 
B|------------------------------------------------------| 
G|------------------------------------------------------| 
D|----2/5----5h8----2/5-------2/5----5h8--7-7--10--9--8-| 
A|-0-------5-----0------5/7-0------5------7-7--10--9--8-| 
E|----------------------------------------5-5---8--7--6-| 

************** 

| /   Slide Up 
| \   Slide Down 
| h   Hammer On 
| .   Palm Mute 
| *   Speed Palm Muting 

************** 
    	
fixar
fixar inscrever-se

enviado porenviado por: tamamoreira
cifra enviadaCorrigida por: sem correções
logo top cifrasComente
ico música do artistaMúsicas deste artista
ico curtiuCurtiu?
ico destaqueDestaque
Petaxxon Comunicação Online

Cifras.com.br - Melhor e mais completo site de cifras e tablaturas do Brasil Mais de 1 milhão de acordes de músicas cadastradas desde 2003
As informações contidas no nosso site são colaborações de seus usuários e podem conter erros, sendo assim, não nos responsabilizamos sobre nenhuma destas.

close
menos
mais
close
Cor dos acordes:

Cor da letra:

close
Alinhar acordes a direita Alinhar acordes a esquerda Alinhar acordes em baixo Alinhar acordes no topo
close
  Mostrar todos os acordes Esconder acordes muito fáceis Esconder acordes fáceis Esconder acordes intermediários
redimensionar
glossário