Cifras e Tablaturas
Cifras Cancelar Versão de Impressão
cifras

Justin Timberlake - Hair Up

fixar na tela  
Exibindo: vídeo-aula ver clipes redimensionar

Tom:

  E|----------0--2-----2--1-----1--0-----0-----------0--2-----2---7--5------------5-----------------------------------------| 
B|-0--2--3--------3--------2--------1-----0--2--3--------3------------7-----7---------------------------------------------| 
G|-----------------------------------------------------------------------7------------------------------------------------|  2X 
D|------------------------------------------------------------------------------------------------------------------------| 
A|------------------------------------------------------------------------------------------------------------------------| 
E|------------------------------------------------------------------------------------------------------------------------| 

Segunda Parte 4x 
E|-----------------------------------------------------------------------------------------------------------------------------------| 
B|--2--2--2--3--3--3--3--2-----------------------------------------------------------------------------------------------------------| 
G|-----------------------------------------------------------------------------------------------------------------------------------| 
D|-----------------------------------------------------------------------------------------------------------------------------------| 
A|-----------------------------------------------------------------------------------------------------------------------------------| 
E|-----------------------------------------------------------------------------------------------------------------------------------| 

(Continuação - 2º parte) 
E|--9----8----9-----8----9----8----9----8---------2--2--2--2--1--1--1--1-----------7--5-----------5----------------------------------| 
B|---------------------------------------------------------------------------------------7-----7-------------------------------------| 
G|------------------------------------------------------------------------------------------7----------------------------------------| 
D|-----------------------------------------------------------------------------------------------------------------------------------| 
A|-----------------------------------------------------------------------------------------------------------------------------------| 
E|-----------------------------------------------------------------------------------------------------------------------------------| 
  

top 5 | justin timberlake
top pop music
Outras músicas do artista letras do(a) Justin Timberlake
Top cifras »Top artistas »
Petaxxon Comunicação Online
Cifras.com.br - Melhor e mais completo site de cifras e tablaturas do Brasil
Mais de 1 milhão de acordes de músicas cadastradas desde 2003
As informações contidas no nosso site são colaborações de seus usuários e podem conter erros, sendo assim, não nos responsabilizamos sobre nenhuma destas.
close
menos
mais
close
Cor dos acordes:

Cor da letra:

 

save
close
close
 
redimensionar