Cifras e Tablaturas
Kadavar

Kadavar

Old Man

Cifras Cancelar Versão de Impressão
cifras

Kadavar - Old Man

fixar na tela  
Exibindo: vídeo-aula ver clipes redimensionar

Tom:

  
Intro 

D|----------------------------------|-----------------------------------------| 
A|-9h10h12--9h10p9--10h12p10--------|-9h10h12--9h10p9--12p10------------------| 
F|----------------------------11-11-|------------------------13p11-9----------| 
C|----------------------------------|-----------------------------------------| 
G|----------------------------------|-----------------------------------------| 
D|----------------------------------|-----------------------------------------| 

D|---------------------------------------------|                    D-------------------| 
A|-9h10h12--9h10p9--10h12p10-------------------|                    A-------------------| 
F|----------------------------11-11------------|Play 2 times then:  F-------------------| 
C|----------------------------------11-9-7-6-4-|                    C-4p2h4-4-2-0-------| 
G|---------------------------------------------|                    G-------------4-2-0-| 
D|---------------------------------------------|                    D-------------------| 


1st Verse 

D|-------------------------| 
A|-------------------------| 
F|-(11)-(11)-9-(11)-(11)-9-| 
C|--11---11--9--11---11--9-| Play 4 times 
G|--9----9---7--9----9---7-| 
D|-------------------------| 

Singer starts:                                      1st ending    2nd ending 
D|--------------------------------------------------|-------------|-----------| 
A|--------------------------------------------------|-------------|-----------| 
F|-11-11-9-11-11--7-9-9-7-9-9--6-7-7-6-7-7--9-11-11-|-9-11-11-9---|-----------| 
C|-11-11-9-11-11--7-9-9-7-9-9--6-7-7-6-7-7--9-11-11-|-9-11-11-9---|-----------| 
G|-9--9--7-9--9---5-7-7-5-7-7--4-5-5-4-5-5--7-9--9--|-7-9--9--7---|-4b---7b---| 
D|--------------------------------------------------|-------------|-----------| 

D|----------------------------------|-----------------------------------------| 
A|-9h10h12--9h10p9--10h12p10--------|-9h10h12--9h10p9--12p10------------------| 
F|----------------------------11-11-|------------------------13p11-9----------| 
C|----------------------------------|-----------------------------------------| 
G|----------------------------------|-----------------------------------------| 
D|----------------------------------|-----------------------------------------| 

D|---------------------------------------------|                     
A|-9h10h12--9h10p9--10h12p10-------------------|                     
F|----------------------------11-11------------|   
C|----------------------------------11-9-7-6-4-|                     
G|---------------------------------------------|                     
D|---------------------------------------------| 


2nd Verse 

D|-------------------| 
A|-------------------| 
F|--(9)--(11)--(11)--| 
C|---9----11----11---| Play 5 times 
G|---7----9-----9----| 
D|-------------------| 

Singer starts:                                      1st ending    2nd ending 
D|--------------------------------------------------|-------------|-----------| 
A|--------------------------------------------------|-------------|-----------| 
F|-11-11-9-11-11--7-9-9-7-9-9--6-7-7-6-7-7--9-11-11-|-9-11-11-9---|-----------| 
C|-11-11-9-11-11--7-9-9-7-9-9--6-7-7-6-7-7--9-11-11-|-9-11-11-9---|-----------| 
G|-9--9--7-9--9---5-7-7-5-7-7--4-5-5-4-5-5--7-9--9--|-7-9--9--7---|-7b---4b---| 
D|--------------------------------------------------|-------------|-----------| 


Bridge 

  each 8 times      then  
D|----------------------------------------------------------------------------------------| 
A|---------------------------------------9b10--7b8--5b7-----------9b10--7b8--5b7-----2-5--| 
F|----------------------------------------------------------4--------------------2-4------| 
C|-4-6-7-9--4-6-7---9-9-9-9-11-11-11-11-----------------2-4---2---------------------------| 
G|-4-6-7-9--4-6-7---9-9-9-9-11-11-11-11---------------------------------------------------| 
D|-2-4-5-7--2-4-5---7-7-7-7-9--9--9--9----------------------------------------------------| 


Chorus 
                                                            (Last chord 16 times) 
D|------------------------------------------------------------------------------| 
A|------------------------------------------------------------------------------| 
F|-11-11-11-11-9-9-9-9-7-7-7-7-6-6-6-6--11-11-11-11-9-9-9-9-7-7-7-7-------------| 
C|-11-11-11-11-9-9-9-9-7-7-7-7-6-6-6-6--11-11-11-11-9-9-9-9-7-7-7-7-------------| 
G|-9--9--9--9--7-7-7-7-5-5-5-5-4-4-4-4--9--9--9--9--7-7-7-7-5-5-5-5-------------| 
D|------------------------------------------------------------------------------| 

D|----------------------------------|-----------------------------------------| 
A|-9h10h12--9h10p9--10h12p10--------|-9h10h12--9h10p9--12p10------------------| 
F|----------------------------11-11-|------------------------13p11-9----------| 
C|----------------------------------|-----------------------------------------| 
G|----------------------------------|-----------------------------------------| 
D|----------------------------------|-----------------------------------------| 

D|---------------------------------------------|                     
A|-9h10h12--9h10p9--10h12p10-------------------|                     
F|----------------------------11-11------------|   
C|----------------------------------11-9-7-6-4-|                     
G|---------------------------------------------|                     
D|---------------------------------------------| 


Solo 

D|------------------------9-12p9-14b-14-12-12-12-12-9-9-9-9--------------------------------------------------| 
A|------------10-10h12h14-----------------------------------12-12-12-12--10h12p10----------------------------| 
F|-11-11-9h11---------------------------------------------------------------------11-9-11------9------11-11--| 
C|----------------------------------------------------------------------------------------9h11---9/11--------| 
G|-----------------------------------------------------------------------------------------------------------| 
D|-----------------------------------------------------------------------------------------------------------| 

D|----------------12----14b-14-14-12-12-9-9-9-9------------------------------------------| 
A|-------------14----14-------------------------12-10-9--9h10p9--------------------------| 
F|-14-11h14p11--------------------------------------------------11-9h11p9----------------| 
C|------------------------------------------------------------------------11-10-9-7------| 
G|----------------------------------------------------------------------------------9-7-9| 
D|---------------------------------------------------------------------------------------| 


3rd Verse 

D|-------------------| 
A|-------------------| 
F|--(9)--(11)--(11)--| 
C|---9----11----11---| Play 5 times 
G|---7----9-----9----| 
D|-------------------| 

Singer starts:                                       1st ending    2nd ending 
D|--------------------------------------------------|-------------|-----------| 
A|--------------------------------------------------|-------------|-----------| 
F|-11-11-9-11-11--7-9-9-7-9-9--6-7-7-6-7-7--9-11-11-|-9-11-11-9---|-----------| 
C|-11-11-9-11-11--7-9-9-7-9-9--6-7-7-6-7-7--9-11-11-|-9-11-11-9---|-----------| 
G|-9--9--7-9--9---5-7-7-5-7-7--4-5-5-4-5-5--7-9--9--|-7-9--9--7---|-4b---7b---| 
D|--------------------------------------------------|-------------|-----------| 


Chorus 
                                                            (Last chord 16 times) 
D|------------------------------------------------------------------------------| 
A|------------------------------------------------------------------------------| 
F|-11-11-11-11-9-9-9-9-7-7-7-7-6-6-6-6--11-11-11-11-9-9-9-9-7-7-7-7-------------| 
C|-11-11-11-11-9-9-9-9-7-7-7-7-6-6-6-6--11-11-11-11-9-9-9-9-7-7-7-7-------------| 
G|-9--9--9--9--7-7-7-7-5-5-5-5-4-4-4-4--9--9--9--9--7-7-7-7-5-5-5-5-------------| 
D|------------------------------------------------------------------------------| 



Outro 
D|----------------------------------|-----------------------------------------| 
A|-9h10h12--9h10p9--10h12p10--------|-9h10h12--9h10p9--12p10------------------| 
F|----------------------------11-11-|------------------------13p11-9----------| 
C|----------------------------------|-----------------------------------------| 
G|----------------------------------|-----------------------------------------| 
D|----------------------------------|-----------------------------------------| 

D|---------------------------------------------|                    D-----------| 
A|-9h10h12--9h10p9--10h12p10-------------------|                    A-----------| 
F|----------------------------11-11------------|Play 2 times then:  F-----------| 
C|----------------------------------11-9-7-6-4-|                    C-4p2h4~~~--| 
G|---------------------------------------------|                    G-----------| 
D|---------------------------------------------|                    D-----------| 


                        That's it, ENJOY and ROCK ON BITCHES!!! 
                            

                                   --> PLEASE RATE <--  
                                         THANX   


************************************ 

|(n) Ghost note 
| h   Hammer-on 
| p   Pull-off 
| b   Bend 
| /   Slide up 
| ~   Vibrato 


************************************ 
  

top 5 | kadavar
top rock'n roll
Outras músicas do artista letras do(a) Kadavar
Top cifras »Top artistas »
Petaxxon Comunicação Online
Cifras.com.br - Melhor e mais completo site de cifras e tablaturas do Brasil
Mais de 1 milhão de acordes de músicas cadastradas desde 2003
As informações contidas no nosso site são colaborações de seus usuários e podem conter erros, sendo assim, não nos responsabilizamos sobre nenhuma destas.
close
menos
mais
close
Cor dos acordes:

Cor da letra:

 

save
close
close
 
redimensionar