Cifras e Tablaturas
Kim Churchill

Kim Churchill

Backwards Head

Cifras Cancelar Versão de Impressão
cifras

Kim Churchill - Backwards Head

fixar na tela  
Exibindo: vídeo-aula ver clipes redimensionar
  
Intro: 
e|-----------0--------f7------|------------0-----------------| 
B|-----------0------0---------|------------0-----------------| 
G|-----------8----8-----------|------------8-----------------|   
D|--0 h7-/9---------------x-0-|--h7-/9------------------x-0--| 
A|--0-h7-/9---------------x-0-|--h7-/9------------------x-0--| 
E|--0-h7-/9-----9---------x-0-|--h7-/9------------------x-0--| 
                                              tt  tt    

e|-----------0--------f7------|------------0-----------------| 
B|-----------0------0---------|------------0-----------------| 
G|-----------8----8-----------|------------8-----------------|  2x 
D|---h7-/9----------------x-0-|--h7-/9-----------------------| 
A|---h7-/9----------------x-0-|--h7-/9-----------------------| 
E|---h7-/9-----9----------x-0-|--h7-/9-----------------------| 
                                             t t t t t t t t  

Stanza 1: Cold wind blowing ... 
e|-----------0--------f7------|------------0-----------------| 
B|-----------0------0---------|------------0-----------------| 
G|-----------8----8-----------|------------8-----------------|   
D|---h7-/9----------------x-0-|--h7-/9------------------x-0--| 
A|---h7-/9----------------x-0-|--h7-/9------------------x-0--| 
E|---h7-/9------9---------x-0-|--h7-/9------------------x-0--| 
                                              tt  tt            


e|-----------0--------f7------|------------0--------f7-------| 
B|-----------0------0---------|------------0------0----------| 
G|-----------8----8-----------|------------8----8--------10--|        
D|--h7-/9-----------------x-0-|--h7-/9-------------------11--| 
A|--h7-/9-----------------x-0-|--h7-/9-------------------11--|         
E|--h7-/9-------9---------x-0-|--h7-/9--------9----------11--|         
                   

e|-----------------------00-|---------------00---------------| 
B|-----------------------00-|---------------00---------------|            
G|---12------------------00-|--13-----------00--7------------| 
D|---12------------------00-|--14-----------00--7------------| 
A|---12------------------00-|--14-----------00--7------------| 
E|---12------------------00-|--14-----------00--7------------| 

e|-----------0--------f7------|------------0-----------------| 
B|-----------0------0---------|------------0-----------------| 
G|-----------8----8-----------|------------8-----------------|   
D|---h7-/9----------------x-0-|--h7-/9-----------------------| 
A|---h7-/9----------------x-0-|--h7-/9-----------------------| 
E|---h7-/9-----9----------x-0-|--h7-/9-----------------------| 
                                             t t t t t t t t  

e|-----------0--------f7------|------------0-----------------| 
B|-----------0------0---------|------------0-----------------| 
G|-----------8----8-----------|------------8-----------------|   
D|---h7-/9----------------x-0-|--h7-/9------------------x-0--| 
A|---h7-/9----------------x-0-|--h7-/9------------------x-0--| 
E|---h7-/9------9---------x-0-|--h7-/9------------------x-0--| 
                                              tt  tt            


e|-----------0--------f7------|------------0-----------------| 
B|-----------0------0---------|------------0-----------------| 
G|-----------8----8-----------|------------8-------------10--|        
D|--h7-/9-----------------x-0-|--h7-/9-------------------11--| 
A|--h7-/9-----------------x-0-|--h7-/9-------------------11--|         
E|--h7-/9-------9---------x-0-|--h7-/9-------------------11--|         
                                              tt  tt  

e|-----------------------00-|---------------00---------------| 
B|-----------------------00-|---------------00---------------|            
G|---12------------------00-|--13-----------00--7------------| 
D|---12------------------00-|--14-----------00--7------------| 
A|---12------------------00-|--14-----------00--7------------| 
E|---12------------------00-|--14-----------00--7------------| 

e|-----------0--------------|------------0-------------------| 
B|-----------0--------------|------------0-------------------| 
G|-----------8--------------|------------8-------------------|  
D|--0-h7-/9-------------x-0-|--h7-/9-------------------------| 
A|--0-h7-/9-------------x-0-|--h7-/9-------------------------| 
E|--0-h7-/9-------------x-0-|--h7-/9-------------------------| 
                tt tt     

Refrain: Backwards head .... 
e|----00--x-----0-0--x------|----00--x----0---00----0----00--| 
B|----00--x-----0-0--x------|----00--x----0---00----0----00--| 
G|----88--x----1212--x------|----55--x----0h5-00----0h12-00--|  4x 
D|----99--x----1212--x------|----55--x----0h5-00----0h12-00--| 
A|----99--x----1212--x------|----55--x----0h5-00----0h12-00--| 
E|----99--x----1212--x------|----55--x----0h5-00----0h12-00--| 

e|-----------0--------f7------|------------0-----------------| 
B|-----------0------0---------|------------0-----------------| 
G|-----------8----8-----------|------------8-----------------|   
D|--0-h7-/9---------------x-0-|--h7-/9-----------------------| 
A|--0-h7-/9---------------x-0-|--h7-/9-----------------------| 
E|--0-h7-/9-----9---------x-0-|--h7-/9-----------------------| 
                                             t t t t t t t t  

Stanza 2:          
e|-----------0--------f7------|------------0-----------------| 
B|-----------0------0---------|------------0-----------------| 
G|-----------8----8-----------|------------8-----------------|   
D|---h7-/9----------------x-0-|--h7-/9------------------x-0--| 
A|---h7-/9----------------x-0-|--h7-/9------------------x-0--| 
E|---h7-/9------9---------x-0-|--h7-/9------------------x-0--| 
                                              tt  tt            


e|-----------0--------f7------|------------0-----------------| 
B|-----------0------0---------|------------0-----------------| 
G|-----------8----8-----------|------------8-------------10--|        
D|--h7-/9-----------------x-0-|--h7-/9-------------------11--| 
A|--h7-/9-----------------x-0-|--h7-/9-------------------11--|         
E|--h7-/9-------9---------x-0-|--h7-/9-------------------11--|         
                                              tt  tt  

e|-----------------------00-|---------------00---------------| 
B|-----------------------00-|---------------00---------------|            
G|---12------------------00-|--13-----------00--7------------| 
D|---12------------------00-|--14-----------00--7------------| 
A|---12------------------00-|--14-----------00--7------------| 
E|---12------------------00-|--14-----------00--7------------| 

e|-----------0--------------|------------0----------------xx-| 
B|-----------0--------------|------------0----------------xx-| 
G|-----------8--------------|------------8----------------xx-|  
D|--0-h7-/9-------------x-0-|--h7-/9----------------------xx-| 
A|--0-h7-/9-------------x-0-|--h7-/9----------------------xx-| 
E|--0-h7-/9-------------x-0-|--h7-/9----------------------xx-| 
                tt tt                        tt    tt 
   

Bridge1: You and I ... 
e|--0--------|--0---------xx|--0---xx-0---xx|--0-------------| 
B|--0--------|--0---------xx|--0---xx-0---xx|--0-------------| 
G|--5--------|--7---------xx|--8---xx-7---xx|--5-------------| 
D|--5--------|--7---------xx|--9---xx-7---xx|--5-------------| 
A|--5--------|--7---------xx|--9---xx-7---xx|--5-------------| 
E|--5--------|--7---------xx|--9---xx-7---xx|--5-------------| 



Riff1: 
Annotation: wait and enjoy the sound, if you feel good start the Riff: 
(Kim plays the end of this Riff different; so far I was not able to figure it out) 
e|--2---h4p4p2-----0--------| 
B|-------------0-4---0------| 
G|---------------------0----| 
D|--------------------------| 
A|--------------------------| 
E|--------------------------| 

Refrain  

Bridge2: You and I ... 
e|-0--0--00-00--0--|-0--0--00-00--0--|--0--000--0--000--|--0-------00---| 
B|-0--0--00-00--0--|-0--0--00-00--0--|--0--000--0--000--|--0-------00---| 
G|-5--5--55-55--5--|-7--7--77-77--7--|--8--888--7--777--|--5-------00---| 
D|-5--5--55-55--5--|-7--7--77-77--7--|--9--999--7--777--|--5-------00---| 
A|-5--5--55-55--5--|-7--7--77-77--7--|--9--999--7--777--|--5-------00---| 
E|-5--5--55-55--5--|-7--7--77-77--7--|--9--999--7--777--|--5-------00---| 

e|-0--0--00-00--0--|-0--0--00-00--0--|--0--000--0--000--|--0--0--0--0---| 
B|-0--0--00-00--0--|-0--0--00-00--0--|--0--000--0--000--|--0--0--0--0---| 
G|-5--5--55-55--5--|-7--7--77-77--7--|--8--888--7--777--|--5--5--5--5---| 
D|-5--5--55-55--5--|-7--7--77-77--7--|--9--999--7--777--|--5--5--5--5---| 
A|-5--5--55-55--5--|-7--7--77-77--7--|--9--999--7--777--|--5--5--5--5---| 
E|-5--5--55-55--5--|-7--7--77-77--7--|--9--999--7--777--|--5--5--5--5---| 
                                                           last cycle 4x 
Annotation Bridge2: Vary the strum pattern and insert some Flageolets on  
                   the 1st and 2nd string to render this part your special touch   

Outro: 
e|-----------------|-----------------|------------------|-0-----00--0----00-| 
B|-----------9-----|------------7----|------------5-----|-0-----00--0----00-| 
G|---------8-------|----------7------|----------5-------|-0-h5--00--0-h7-00-|  
D|-0-h9--9---------|--0-h7--7--------|--0-h5--5---------|-0-h5--00--0-h7-00-|  2x 
A|-0-h9------------|--0-h7-----------|--0-h5------------|-0-h5--00--0-h7-00-| 
E|-0-h9------------|--0-h7-----------|--0-h5------------|-0-h5--00--0-h7-00-| 

e|-----------------|-----------------|------------------|-------------------| 
B|-----------9-----|------------7----|------------5-----|-------------------| 
G|---------8-------|----------7------|----------5-------|-------------------|  
D|-0-h9--9---------|--0-h7--7--------|--0-h5--5---------|-------------------|   
A|-0-h9------------|--0-h7-----------|--0-h5------------|-------------------| 
E|-0-h9------------|--0-h7-----------|--0-h5------------|-------------------| 
                                                           t   t t t t t t 

e|-----------------|-----------------|------------------|-------------------| 
B|-----------9-----|------------7----|------------5-----|-------------------| 
G|---------8-------|----------7------|----------5-------|-------------------|  
D|-0-h9--9---------|--0-h7--7--------|--0-h5--5---------|-------------------|   
A|-0-h9------------|--0-h7-----------|--0-h5------------|-------------------| 
E|-0-h9------------|--0-h7-----------|--0-h5------------|-------------------| 
                                                          feel free to end the  
                                                          song; use Flageolets  
                                                          hammer on`s and pull-off`s 
                                                          on 5th and 7th fret 


************************************ 

| /   slide up 
| h   hammer-on 
| p   pull-off 
| x   Mute note 
| f   Flageolet 
| t   Percussion 

************************************ 
  

top 5 | kim churchill
top rock'n roll
Outras músicas do artista letras do(a) Kim Churchill
Top cifras »Top artistas »
Petaxxon Comunicação Online
Cifras.com.br - Melhor e mais completo site de cifras e tablaturas do Brasil
Mais de 1 milhão de acordes de músicas cadastradas desde 2003
As informações contidas no nosso site são colaborações de seus usuários e podem conter erros, sendo assim, não nos responsabilizamos sobre nenhuma destas.
close
menos
mais
close
Cor dos acordes:

Cor da letra:

 

save
close
close
 
redimensionar