Cifras e Tablaturas
Kleber Lucas

Kleber Lucas

Sai Do Meu Caminho Tablatura Verificada

Compositor : (Kleber Lucas / Rogério Vieira)

Cifras Cancelar Versão de Impressão
cifras

Kleber Lucas - Sai Do Meu Caminho

fixar na tela  
Exibindo: vídeo-aula ver clipes redimensionar
  
Intro:   

e|---------|-------0-|---------|-----|-----|---------|----------|  
B|-----0---|-----4---|---------|-----|-----|---------|----------|  
G|-------6-|---4-----|-6-6-6-6-|-8-8-|-9-9-|-3-3-3-3-|-7-7-7-7--|  
D|---6-----|---------|---------|-----|-----|---------|----------|  
A|-4-------|-4-------|-4-4-4-4-|-6-6-|-7-7-|-1-1-1-1-|-5-5-5-5--|  
E|---------|---------|---------|-----|-----|---------|----------|  

e|------------------------------------------0-|  
B|------------------------------------------0-|  
G|-6-6-6-6---8-8---9-9---3-3-3-3------------6-|  
D|--------------------------------7-7-7-7---6-|  
A|-4-4-4-4---6-6---7-7---1-1-1-1------------4-|  
E|--------------------------------5-5-5-5-----|  

Verso: C#m A7/9 F#7/11  


e|------------|  
B|------------|  
G|--4-4-4-4---|  
D|------------|  
A|------------|  
E|------------|  

e|----------------|  
B|--7--7p5-5------|  
G|------------6---|  
D|----------------|  
A|----------------|  
E|----------------|  

e|----------|  
B|---12h14--|  
G|----------|  
D|----------|  
A|----------|  
E|----------|  

e|---14-14-14-14\-------12----12----12------12----12----12-|  
B|-------------------16----16----16------16----16----16----|  
G|---------------------------------------------------------|  
D|---------------------------------------------------------|  
A|---------------------------------------------------------|  
E|---------------------------------------------------------|  


Refrão: F#5 A5  

e|-----------|---------|---------|  
B|-----------|---------|---------|  
G|-----------|---------|-2--2--2-|  
D|---4-4-4-4-|-4-4-4-4-|-2--2--2-|  
A|---4-4-4-4-|-4-4-4-4-|-0--0--0-|  
E|---2-2-2-2-|-2-2-2-2-|---------|  

e|---------|---------|---------|-------------|  
B|---------|---------|---------|-------------|  
G|-6-6-6-6-|-8-8-8-8-|-9-9-9-9-|-11-11-11-11-|  
D|---------|---------|---------|-------------|  
A|-4-4-4-4-|-6-6-6-6-|-7-7-7-7-|-9--9--9--9--|  
E|---------|---------|---------|-------------| (4x)  

Riff:  

e|------------|-----------|  
B|------------|-----------|  
G|------6-4h6-|-----6-4h6-|  
D|------6-4h6-|-----6-4h6-|  
A|--4-4-------|-4-4-------|  
E|------------|-----------|  

verso 2:  

e|-0-|-----------------------------|  
B|-0-|0h2-xx-5h7-xx--7h9-xx-12h14--|  
G|-6-|-----------------------------|  
D|-6-|-----------------------------|  
A|-4-|-----------------------------|  
E|---|-----------------------------|  

e|------12-12\-14-14\11---|  
B|---0--------------------|  
G|---6--------------------|  
D|---6--------------------|  
A|---4--------------------|  
E|------------------------|  

e|--7-7h9---7-7h9---|-9-9-9-|  
B|--------7-------7-|-------|  
G|------------------|-------|  
D|------------------|-------|  
A|------------------|-------|  
E|------------------|-------|  

e|---7-7h9-------|----12----|----12-11----------|  
B|---------7-7h9-|-16----16-|-12-------12h14----|  
G|---------------|----------|----------------11-|  
D|---------------|----------|-------------------|  
A|---------------|----------|-------------------|  
E|---------------|----------|-------------------|  

Refrão: F#5 A5  

e|-----------|---------|-----|  
B|-----------|---------|-----|  
G|-----------|---------|-2---|  
D|---4-4-4-4-|-4-4-4-4-|-2---|  
A|---4-4-4-4-|-4-4-4-4-|-0---|  
E|---2-2-2-2-|-2-2-2-2-|-----|  

e|---------|---------|---------|-----------|  
B|---------|---------|---------|-----------|  
G|-6-6-6-6-|-8-8-8-8-|-9-9-9-9-|-11-11-11--|  
D|---------|---------|---------|-----------|  
A|-4-4-4-4-|-6-6-6-6-|-7-7-7-7-|-9--9--9---|  
E|---------|---------|---------|-----------| (2x)  

Ultima parte do Refrão:  

e|---11(tr)---12(tr)---14(tr)--14b16(tr)--|  
B|----------------------------------------|  
G|----------------------------------------|  
D|----------------------------------------|  
A|----------------------------------------|  
E|----------------------------------------|  

Refrão: F#5 A5  

e|-----------|---------|-----|  
B|-----------|---------|-----|  
G|-----------|---------|-2---|  
D|---4-4-4-4-|-4-4-4-4-|-2---|  
A|---4-4-4-4-|-4-4-4-4-|-0---|  
E|---2-2-2-2-|-2-2-2-2-|-----|  

e|---------|---------|---------|-----------|  
B|---------|---------|---------|-----------|  
G|-6-6-6-6-|-8-8-8-8-|-9-9-9-9-|-11-11-11--|  
D|---------|---------|---------|-----------|  
A|-4-4-4-4-|-6-6-6-6-|-7-7-7-7-|-9--9--9---|  
E|---------|---------|---------|-----------| (4x)  

Riff Final:  

e|---------------------------|-----------------------|  
B|---------------------------|-------------------7---|  
G|-----6-x-4-4-x---4-x-4-4h6-|-----6-x-4-4-x-4-x-6---|  
D|-----6-x-4-4-x---4-x-4-4h6-|-----6-x-4-4-x-4-x-----|  
A|-4-4---x-----x-4---x-------|-4-4---x-----x---x-----|  
E|---------------------------|-----------------------|  

e|-------------------------|------------------------------|  
B|-------------------------|------------------------------|  
G|-----6-x-4-4-x---4-x-4---|-----6p4-x-4-x---4-x--6--6-6--|  
D|-----6-x-4-4-x---4-x-4---|-----6p4-x-4-x---4-x--6--6-6--|  
A|-4-4---x-----x-4---x-----|-4-4-----x---x-4---x----------|  
E|-------------------------|------------------------------|  

e|------|  
B|------|  
G|--6---|  
D|--6---|  
A|--4---|  
E|--4---|  

  

cifra enviadacorrigido por:Acelot
enviado porenviada por:Acelot
top 5 | kleber lucas
top gospel
Outras músicas do artista letras do(a) Kleber Lucas
Top cifras »Top artistas »
Petaxxon Comunicação Online
Cifras.com.br - Melhor e mais completo site de cifras e tablaturas do Brasil
Mais de 1 milhão de acordes de músicas cadastradas desde 2003
As informações contidas no nosso site são colaborações de seus usuários e podem conter erros, sendo assim, não nos responsabilizamos sobre nenhuma destas.
close
menos
mais
close
Cor dos acordes:

Cor da letra:

 

save
close
close
 
redimensionar