Cifras e Tablaturas
Klezroym

Klezroym

Yankele Nel Ghetto

Cifras Cancelar Versão de Impressão Print

Klezroym - Yankele Nel Ghetto

Tom:

  • 0:00 / 0:00
  			Intro

  {0:12} 
e|----------------------|----------------------| 
B|---3~~3~3-----3~~3~3--|--6~~6~6-----6 s8-6\--| 
G|-----------2----------|----------5-----------| 
D|----------------------|----------------------| 
A|----------------------|----------------------| 
E|----------------------|----------------------| 


|-----------------------|----------------------| 
|---8~~8~8-----8 s11~~--|-10h11h10-8-----------| 
|-----------7-----------|------------10-9-7~~~-| 
|-----------------------|----------------------| 
|-----------------------|----------------------| x2 
|-----------------------|----------------------| 


  {0:35} 
e|----------------------|----------------------| 
B|--10--10-11 s13-11-10-|-8~~8~8---8------8----| 
G|----------------------|--------7-------------| 
D|----------------------|----------------------| 
A|----------------------|----------------------| 
E|----------------------|----------------------| 


|-----------------------|----------------------| 
|/15b--13-11-10-10------|-8-8------------------| 
|------------------7-7--|------10-9-7----------| 
|-----------------------|----------------------| 
|-----------------------|----------------------| 
|-----------------------|----------------------| 


  {0:47} 
e|----------------------|----------------------| 
B|-10-10-11-13-11-10-10-|-10---8~~8~8---8-8---8| 
G|----------------------|-------------7--------| 
D|----------------------|----------------------| 
A|----------------------|----------------------| 
E|----------------------|----------------------| 


|-----------------------|----------------------| 
|8s15~~~~---------------|-13-11-10-10----------| 
|-----------------------|-------------7-7-8--8-| 
|-----------------------|----------------------| 
|-----------------------|----------------------| 
|-----------------------|----------------------| 


|-----------------------| 
|-----------------------| 
|---10----9----7--------| 
|-----------------------| 
|-----------------------| 
|-----------------------| 


  {1:00} 
e|----------------------|----------------------| 
B|---3~~3~3-----3~~3~3--|--6~~6~6-----6 s8-6\--| 
G|-----------2----------|----------5-----------| 
D|----------------------|----------------------| 
A|----------------------|----------------------| 
E|----------------------|----------------------| 


|-----------------------|----------------------| 
|---8~~8~8-----8 s11~~--|-10h11h10-8-8s6--5-3--| 
|-----------7-----------|----------------------| 
|-----------------------|----------------------| 
|-----------------------|----------------------| 
|-----------------------|----------------------| 

    	

enviado porenviado por: davidedante123
cifra enviadaCorrigida por: sem correções
logo top cifrasComente
ico música do artistaMúsicas deste artista
ico curtiuCurtiu?
ico destaqueDestaque
Petaxxon Comunicação Online

Cifras.com.br - Melhor e mais completo site de cifras e tablaturas do Brasil Mais de 1 milhão de acordes de músicas cadastradas desde 2003
As informações contidas no nosso site são colaborações de seus usuários e podem conter erros, sendo assim, não nos responsabilizamos sobre nenhuma destas.

close
menos
mais
close
Cor dos acordes:

Cor da letra:

close
Alinhar acordes a direita Alinhar acordes a esquerda Alinhar acordes em baixo Alinhar acordes no topo
close
  Mostrar todos os acordes Esconder acordes muito fáceis Esconder acordes fáceis Esconder acordes intermediários
redimensionar
glossário