Cifras e Tablaturas
Korantemaa

Korantemaa

Photosynthesis

Cifras Cancelar Versão de Impressão
cifras

Korantemaa - Photosynthesis

fixar na tela  
Exibindo: vídeo-aula ver clipes redimensionar
  Chords for intro  verse  
Am  Bm  C 

Chords for preChorus  
Am  Bm  Em/C# 

Chords for Chorus 
Am  G  A5/F# 

Intro 
e|----------------------------------------| 
B|----1----------1--------3----5----5-----| 
G|----2----------2--------4----5----5-----| 
D|----2----------2--------4----5----5-----| 
A|-0--------0-0--------2-------3---3------| 
E|-------0---------0----------------------| x2 

verse 1 
As soon as I'm awake  I'm aware 
The new day is burning 
I'm tangled up in sheets and my hair is burnt  the heat is hurting 
e|----------------------------------------| 
B|----1----------1--------3----5----5-----| 
G|----2----------2--------4----5----5-----| 
D|----2----------2--------4----5----5-----| 
A|-0--------0-0--------2-------3---3------| 
E|-------0---------0--------------------0-| x2 

As soon as I'm awake  I'm aware 
My body's in protest 
My arms can't pull the sheets back  and my head is hurting 
e|----------------------------------------| 
B|----1----------1--------3----5----5-----| 
G|----2----------2--------4----5----5-----| 
D|----2----------2--------4----5----5-----| 
A|-0--------0-0--------2-------3---3------| 
E|-------0---------0--------------------0-| x2 

Pre-Chorus 
Wake up 
Sun is up 
Get up 
Soak it up 
e|----------------------------------------| 
B|----1----------1--------3----5----5-----| 
G|----2----------2--------4----4----4-----| 
D|----2----------2--------4----5----5-----| 
A|-0--------0-0--------2-------4---4------| 
E|-------0---------0----------------------| x2 

Chorus 
Walking and throwing glass 
The walls and floors are made of stone  I'm taking full control 
Walking in  walking out 
I'm losing my control 
e|----------------------------------------| 
B|----1----------1---------0--------------| 
G|----2----------2---------0---2-----2----| 
D|----2----------2-------0-----2-----2----| 
A|-0--------0-0---------------------------| 
E|-------0---------0---3-------2---2----0-| x2 

Intermission 
e|----------------------------------------| 
B|----1----------1--------3----5----5-----| 
G|----2----------2--------4----5----5-----| 
D|----2----------2--------4----5----5-----| 
A|-0--------0-0--------2-------3---3------| 
E|-------0---------0----------------------| 

e|----------------------------------------| 
B|----1----------1---------0--------------| 
G|----2----------2---------0---2-----2----| 
D|----2----------2-------0-----2-----2----| 
A|-0--------0-0---------------------------| 
E|-------0---------0---3-------2---2------| 

verse 2 
As soon as I'm asleep I'm aware 
I won't get to rest 
The night has other things planned for me  I'm already tired 
e|----------------------------------------| 
B|----1----------1--------3----5----5-----| 
G|----2----------2--------4----5----5-----| 
D|----2----------2--------4----5----5-----| 
A|-0--------0-0--------2-------3---3------| 
E|-------0---------0--------------------0-| x2 

As soon as I'm asleep I'm aware 
That when I wake up 
e|----------------------------------------| 
B|----1----------1--------3----5----5-----| 
G|----2----------2--------4----5----5-----| 
D|----2----------2--------4----5----5-----| 
A|-0--------0-0--------2-------3---3------| 
E|-------0---------0--------------------0-| 
The sun won't shine  I'm gonna have to use my flashlight 
e|----------------------------------------| 
B|----1----------1--------3----5----5-----| 
G|----2----------2--------4----5----5-----| 
D|----2----------2--------4----5----5-----| 
A|-0--------0-0-----------2----3----3-----| 
E|-------0---------0----------------------| 

Pre-Chorus 
Oh  wake up 
Sun is up  ooh 
Get up 
Soak it up 
e|----------------------------------------| 
B|----1----------1--------3----5----5-----| 
G|----2----------2--------4----4----4-----| 
D|----2----------2--------4----5----5-----| 
A|-0--------0-0--------2-------4---4------| 
E|-------0---------0--------------------0-| x2 

Chorus 
Walking and throwing glass 
The walls and floors are made of stone  I'm taking full control 
Walking in  walking out 
I'm losing my control 
e|----------------------------------------| 
B|----1----------1---------0--------------| 
G|----2----------2---------0---2-----2----| 
D|----2----------2-------0-----2-----2----| 
A|-0--------0-0---------------------------| 
E|-------0---------0---3-------2---2----0-| x2 

e|---------------------| 
B|------0------------2-| 
G|------0---2-----2--1-| 
D|----0-----2-----2--1-| 
A|-------------------0-| 
E|--3-------2-----2----| 

Bridge 
N.C. 
There is something 'bout this world that I should know by now 
I'm doing something wrong cause this don't feel right 
Maybe if I cut my hair and sleep a little more 
Spend less time on my phone and more time alone 

Something 'bout this world that I should know by now 
I'm doing something wrong cause this don't feel right 
Maybe if I cut my hair and sleep a little more (maybe  maybe  maybe) 
Spend less time on my phone and more time alone 
e|-----------------------|    e|-----------| 
B|----1----------1-------|    B|----1------| 
G|----2----------2-------|    G|----2------| 
D|----2----------2-------|    D|----2------| 
A|-0----------0----------|    A|-0---------| 
E|-----------------------| x3 E|-----------| 

e|---------------------| 
B|------0--------------| 
G|------0---------2----| 
D|----0-----------2----| 
A|---------------------| 
E|--3-------------2----|   

Intermission 
e|----------------------------------------| 
B|----1----------1--------3----5----5-----| 
G|----2----------2--------4----5----5-----| 
D|----2----------2--------4----5----5-----| 
A|-0--------0-0--------2-------3---3------| 
E|-------0---------0----------------------| x2 

Pre-Chorus 
Oh  wake up 
Sun is up  ooh 
Get up 
Soak it up 
e|----------------------------------------| 
B|----1----------1--------3----5----5-----| 
G|----2----------2--------4----4----4-----| 
D|----2----------2--------4----5----5-----| 
A|-0--------0-0--------2-------4---4------| 
E|-------0---------0--------------------0-| x2 

Chorus 
Walking and throwing glass 
The walls and floors are made of stone  I'm taking full control 
Walking in  walking out 
I'm losing my control  ah... 
e|----------------------------------------| 
B|----1----------1---------0--------------| 
G|----2----------2---------0---2-----2----| 
D|----2----------2-------0-----2-----2----| 
A|-0--------0-0---------------------------| 
E|-------0---------0---3-------2---2----0-| x2 

e|---------------------| 
B|------0--------------| 
G|------0---2-----2----| 
D|----0-----2-----2----| 
A|---------------------| 
E|--3-------2-----2--0-| x2 

e|-----------|  
B|-----------| 
G|----2------| 
D|----2------| 
A|----0------| 
E|-----------| 
  

cifra enviadasem correções
enviado porenviada por:brunblazkowski
top 5 | korantemaa
top rock'n roll
Outras músicas do artista letras do(a) Korantemaa
Top cifras »Top artistas »
Petaxxon Comunicação Online
Cifras.com.br - Melhor e mais completo site de cifras e tablaturas do Brasil
Mais de 1 milhão de acordes de músicas cadastradas desde 2003
As informações contidas no nosso site são colaborações de seus usuários e podem conter erros, sendo assim, não nos responsabilizamos sobre nenhuma destas.
close
menos
mais
close
Cor dos acordes:

Cor da letra:

 

save
close
close
 
redimensionar