Cifras e Tablaturas
Kurt Cobain

Kurt Cobain

Letters To Frances

Cifras Cancelar Versão de Impressão
cifras

Kurt Cobain - Letters To Frances

fixar na tela  
Exibindo: vídeo-aula ver clipes redimensionar
  
E |-----------|-------------|-------------|--------------| 
B |-----------|-------------|-------------|--------------| 
G |-----------|-------------|-------------|--------------| 
D |--3---4-3--|---3---4-3-1-|---3---6-4-3-|---3----------| 
A |4---4------|-4---4-------|-4---4-------|-4---4-2~-----| 
E |-----------|-------------|-------------|--------------| 

Chords. It's something like this. Mix up the chords a bit and again, you should be fine. 

E|-------------------|--------------| 
B|-------------------|--------------| 
G|-------------------|--------------| 
D|4-4-4-3-4-4-4-3----|-3~-----------| 
A|4-4-4-4-4-4-4-4----|-4~-----------| 
E|4-4-4-4-4-4-4-4-4~-|-4~-----------| 
  

top 5 | kurt cobain
top rock alternativo
Outras músicas do artista letras do(a) Kurt Cobain
Top cifras »Top artistas »
Petaxxon Comunicação Online
Cifras.com.br - Melhor e mais completo site de cifras e tablaturas do Brasil
Mais de 1 milhão de acordes de músicas cadastradas desde 2003
As informações contidas no nosso site são colaborações de seus usuários e podem conter erros, sendo assim, não nos responsabilizamos sobre nenhuma destas.
close
menos
mais
close
Cor dos acordes:

Cor da letra:

 

save
close
close
 
redimensionar