Cifras e Tablaturas
La Bersuit

La Bersuit

El Tiempo No Para

Cifras Cancelar Versão de Impressão

La Bersuit - El Tiempo No Para

Tom: G

  			punteo de la intro: 

1e||------------------------|---0--|---------|-----2-|-----2-|-0--0-|-3-------|----3--3----|----0-| 
2b||-3/5--3---------------3-|---1--|-----1/3-|-----3-|-----0-|-1--1-|---3/5/3-|----3--3----|----1-| 
3g||---------4/2--0--2/4----|---2--|-0/2-----|---2---|-----2-|-0--0-|---------|----4--4----|----2-| 
4d||------------------------|---2--|---------|-0-----|---1---|-2--2-|---------|--5----5--5-|--2---| 
5a||------------------------|-0----|---------|-------|-2-----|-3--3-|---------|-5-----5----|-0----| 
6e||------------------------|------|---------|-------|-------|------|---------|------------|------| 



                              Am                D     B7     C             G(CEJIA)  Am 
1e||-------|---2-|-----2-|------8---8------12-|--3--| 
2b||-------|---3-|-----0-|--------8-----------|--0--| 
3g||-0/2---|---2-|-----2-|-4/9--------9/12----|--0--| 
4d||-----3-|-0---|---1---|--------------------|--0--| 
5a||-------|-----|-2-----|--------------------|--2--| 
6e||-------|-----|-------|--------------------|--3--| 



             D    B7                          G 

    RIFF 1     RIFF 2    RIFF 3    RIFF 4      RIFF 5 
1e||-----0--|------2---|-----2-|--2--2-----|----------| 
2b||-----1--|------3---|-----0-|--3----3---|----------| 
3g||-----2--|----2-----|-----2-|--2------2-|----------| 
4d||---2----|--0-------|---1---|--0--------|--2-0-----| 
5a||--0-----|----------|-2-----|-----------|------2-0-| 
6e||--------|----------|-------|-----------|----------| 
    	
fixar
fixar inscrever-se

enviado porenviado por: apUu
cifra enviadaCorrigida por: sem correções
logo top cifrasComente
ico música do artistaMúsicas deste artista
ico curtiuCurtiu?
ico destaqueDestaque
Petaxxon Comunicação Online

Cifras.com.br - Melhor e mais completo site de cifras e tablaturas do Brasil Mais de 1 milhão de acordes de músicas cadastradas desde 2003
As informações contidas no nosso site são colaborações de seus usuários e podem conter erros, sendo assim, não nos responsabilizamos sobre nenhuma destas.

close
menos
mais
close
Cor dos acordes:

Cor da letra:

close
Alinhar acordes a direita Alinhar acordes a esquerda Alinhar acordes em baixo Alinhar acordes no topo
close
  Mostrar todos os acordes Esconder acordes muito fáceis Esconder acordes fáceis Esconder acordes intermediários
redimensionar
glossário