Cifras e Tablaturas
La Santa Grifa

La Santa Grifa

Rap/hip Hop

Cifras Cancelar Versão de Impressão
cifras

La Santa Grifa - Rap/hip Hop

fixar na tela  
Exibindo: vídeo-aula ver clipes redimensionar

Tom:

  
E|------5-----------5----------------------------5-------6-/8\-6-------5-------6-------8----------| 
A|------------6-----------6-----------------8-----------------------------------------------------| 
D|------------------------------------------------------------------------------------------------| 
G|------------7-----------7-----------------------------------------------------------------------| 
B|------------------8--------------7---------------------0----------------------------------------| 
E|------0-----------------------------------------------------------------------------------------| 


                                                                    SI USTED QUIERE SABER CONOCER DE ESTAS    
                                                        PULL OFF       

E|------5-----------5----------------------------5-------6-/8\-6-------5-------6-------8----------| 
A|------------6-----------6-----------------8-----------------------------------------------------| 
D|------------------------------------------------------------------------------------------------| 
G|------------7-----------7-----------------------------------------------------------------------| 
B|------------------8--------------7---------------------0----------------------------------------| 
E|------0-----------------------------------------------------------------------------------------| 


PERSONAS   CAEGALE PA'CA UNAS CUANTAS HORAS 
                                                      PULL OFF       

E|------5-----------5----------------------------5-------6-/8\-6-------5-------6-------8----------| 
A|------------6-----------6-----------------8-----------------------------------------------------| 
D|------------------------------------------------------------------------------------------------| 
G|------------7-----------7-----------------------------------------------------------------------| 
B|------------------8--------------7---------------------0----------------------------------------| 
E|------0-----------------------------------------------------------------------------------------| 




        SON COMO SON .........         SON COMO SON ......... 
                                                      PULL OFF       

E|------5-----------5----------------------------5-------6-/8\-6-------5-------6-------8----------| 
A|------------6-----------6-----------------8-----------------------------------------------------| 
D|------------------------------------------------------------------------------------------------| 
G|------------7-----------7-----------------------------------------------------------------------| 
B|------------------8--------------7---------------------0----------------------------------------| 
E|------0-----------------------------------------------------------------------------------------| 






         TODOS CON VICIO Y ADICCION  
                                                      PULL OFF       

E|------5-----------5----------------------------5-------6-/8\-6-------5-------6-------8----------| 
A|------------6-----------6-----------------8-----------------------------------------------------| 
D|------------------------------------------------------------------------------------------------| 
G|------------7-----------7-----------------------------------------------------------------------| 
B|------------------8--------------7---------------------0----------------------------------------| 
E|------0-----------------------------------------------------------------------------------------| 







  SI USTED QUIERE SABER CONOCER DE ESTAS    
                                                        PULL OFF       

E|------5-----------5----------------------------5-------6-/8\-6-------5-------6-------8----------| 
A|------------6-----------6-----------------8-----------------------------------------------------| 
D|------------------------------------------------------------------------------------------------| 
G|------------7-----------7-----------------------------------------------------------------------| 
B|------------------8--------------7---------------------0----------------------------------------| 
E|------0-----------------------------------------------------------------------------------------| 




PERSONAS   CAEGALE PA'CA UNAS CUANTAS HORAS 
                                                      PULL OFF       

E|------5-----------5----------------------------5-------6-/8\-6-------5-------6-------8----------| 
A|------------6-----------6-----------------8-----------------------------------------------------| 
D|------------------------------------------------------------------------------------------------| 
G|------------7-----------7-----------------------------------------------------------------------| 
B|------------------8--------------7---------------------0----------------------------------------| 
E|------0-----------------------------------------------------------------------------------------| 



                                EL RIFF SE REPITE DURANTE TODA LA CANCION 
  

top 5 | la santa grifa
top rock'n roll
Outras músicas do artista letras do(a) La Santa Grifa
Top cifras »Top artistas »
Petaxxon Comunicação Online
Cifras.com.br - Melhor e mais completo site de cifras e tablaturas do Brasil
Mais de 1 milhão de acordes de músicas cadastradas desde 2003
As informações contidas no nosso site são colaborações de seus usuários e podem conter erros, sendo assim, não nos responsabilizamos sobre nenhuma destas.
close
menos
mais
close
Cor dos acordes:

Cor da letra:

 

save
close
close
 
redimensionar